Song name
# A B C D E F G H I J K L M N O P Q R S T U V W X Y Z

Genitorturers - Sin City tab

#------------Created with Taborama Tab Creator-----------------#
#------------------------------------------------------------------------------#

Title: Sin City
Artist: Genitorturers
Album: Sin City

Instrument: Guitar

Tabbed by:  Andy Bones (Jackin_Man@msn.com)

Tuning: 1 1/2 Steps Down (Db Gb Cb Fb Ab Db)

This song rocks! Very easy. I'm not so sure about the little solo. 
Please correct this! The X's (in caps) mean to do it as many times as needed.


Db|-------------------------------------------------------------------||
Ab|-------------------------------------------------------------------||
Fb|-------------------------------------------------------------------||
Cb|--5-2-5-7-5-2-x-5-2-5-7-5-2-x-5-2-5-7-5-2-x-5-2-5-7-5-2-x----------||
Gb|--5-2-5-7-5-2-x-5-2-5-7-5-2-x-5-2-5-7-5-2-x-5-2-5-7-5-2-x----------||
Db|--3-0-3-5-3-0-x-3-0-3-5-3-0-x-3-0-3-5-3-0-x-3-0-3-5-3-0-x----------||

Db|---0~--------------------------------------------------------------||
Ab|---0~--------------------------------------------------------------||
Fb|---0~------let ring as needed--------------------------------------||
Cb|---2~--------------------------------------------------------------||
Gb|---2~--------------------------------------------------------------||
Db|---0~--------------------------------------------------------------||


Db|---------------------------------11------11------11------11--------||
Ab|---------------------------------11------11------11------11--------||
Fb|--5X--6X--7X-------------------------------------------------------||
Cb|--5X--6X--7X-----5-----4-------------------------------------------||
Gb|--3X--4X--5X--5-----5-----5----------------------------------------||
Db|-----------------------------x-x-----x-x-----x-x-----x-x-----------||

 Solo:
Db|-------------------------------------------------------------------||
Ab|--17X--17X--17X--17X--15-17-17-15-17-17----something like that-----||
Fb|--15X--16X--15X--16X-----------------------------------------------||
Cb|-------------------------------------------------------------------||
Gb|-------------------------------------------------------------------||
Db|-------------------------------------------------------------------||

Db|-------------------------------------------------------------------||
Ab|-------------------------------------------------------------------||
Fb|-------------------------------------------------------------------||
Cb|--5-2-5-7-5-2-x-5-2-5-7-5-2-x-5-2-5-7-5-2-x-5-8-8-8-8-8-8-8--------||
Gb|--5-2-5-7-5-2-x-5-2-5-7-5-2-x-5-2-5-7-5-2-x-5-8-8-8-8-8-8-8--------||
Db|--3-0-3-5-3-0-x-3-0-3-5-3-0-x-3-0-3-5-3-0-x-3-6-6-6-6-6-6-6--------||

Db|-------------------------------------------11\---------------------||
Ab|-------------------------------------------11\---------------------||
Fb|--5X-6X-7X-6X-7X-6X-7X---------------------------------------------||
Cb|--5X-6X-7X-6X-5X-6X-7X-----5-----4---------------------------------||
Gb|--3X-4X-5X-4X-3X-4X-5X--5-----5-----5------------------------------||
Db|---------------------------------------x-x-------------------------||

Please make some correct or something. Then email me what you got. Thanx.

====
Tap to rate this tab
# A B C D E F G H I J K L M N O P Q R S T U V W X Y Z