Gentle Giant - The House The Street The Room tab

|-----------------------------------------|
|-----------------------------------------|
|-----------------------------------------|
|--------------5--4-----------------------|
|-3----5--6----------6--5--3--2-----------|
|--------------------------------4--3--2--|


|-----------------------------------------|
|-----------------------------------------|
|--------------------------------------5--|
|--------------------------5--4-----------|
|--------3--2--------5--6--------6--5-----|
|--3--4--------4--3-----------------------|

                |----Triplets----|
|-----------------------------------------|
|-----------------------------------------|
|-----------------------------------------|
|----------------5--4---------------------|
|-3--3----5--6---------6--5--3--2---------|
|---------------------------------4-3-2---|


|-----------------------------------------|
|-----------------------------------------|
|---------------------------------------5-|
|---------------------------5--4----------|
|-------3--2----------5--6--------6--5----|
|-3--4--------4--3------------------------|
Tap to rate this tab
 
# A B C D E F G H I J K L M N O P Q R S T U V W X Y Z