Song name
# A B C D E F G H I J K L M N O P Q R S T U V W X Y Z

Gentle Giant - On Reflection tab

Artist: Gentle Giant         |
Title: On Reflection         |
Album: Free Hand             |
Transcribed by: Mike         |
Email: mbritt@udel.edu       |
=============================

This excerpt begins at 1:59 into the song where vocals and recorder come in and this is
transposed version to solo guitar.  Play on accoustic or nylon string.  I would
using fingers to a pick but it's personal preference.  I didn't want to take the time to 
this out by ear but no one else would probably tab it.  It should be quite accurate but
my first tab so don't critique too hard.  Sorry I got tired and didn't feel like 
the whole song but it's a beautiful melody so enjoy!

e|------------------------------------------------------------------|
B|--3--1--0----------6--5--3-------5------------------1h3-----------|
G|-----------2--0---------------7----------2--2h3----3---3----------|
D|-------------------3----------5-----5-------------3-----3---------|
A|-------------------------------------------------1----------------|
E|--3----------------6----------8----------1------------------------|

e|-----------------------------------|
B|-----------3------1----------------|
G|--0--2--3--------0---3--2----------|
D|----------------2-------3----------|
A|--1------------3--------3----------|
E|-----------------------------------|

e|------------------------------------------------------------------|
B|--3--1--0------------6--5--3--------5-----------------1h3---------|
G|-----------2--0-----3------------7---------2--2h3----3---3--------|
D|-------------------3------------5------5------------3-----3-------|
A|---------------------------------------------------1--------------|
E|--3---------------6------------8-----------1----------------------|

e|-----------------------------------|
B|-----------3-----1-----------------|
G|--0--2--3-------0---3--2-----------|
D|---------------2-------3-----------|
A|--1-----------3--------3-----------|
E|-----------------------------------|
Tap to rate this tab
# A B C D E F G H I J K L M N O P Q R S T U V W X Y Z