Song name
# A B C D E F G H I J K L M N O P Q R S T U V W X Y Z

Gentry Montgomery - Roll With Me tab

I think the intro and several of the chords in ver. 2 are wrong. Best I can tell, ver. 1 
the correct chords for the most part*, but does not have the intro tabbed out.

(*verse 1 of version 1 has an A that should be a D at the end of the second line and 
line, should be the same as the second verse, which is correct)

Corrected intro:

-5/7~-10-7\5--------------5---------|
-------------5/7~-7\5-5/7---7-5-----|
--------------------------------7---|
----------------------------------7-|
------------------------------------|
------------------------------------|

-5/7~-10-7\5-----5-7-5--------------|
-------------5-7-------7-5---7\5~---|
---------------------------7--------|
------------------------------------|
------------------------------------|
------------------------------------|
Tap to rate this tab
 
# A B C D E F G H I J K L M N O P Q R S T U V W X Y Z