Song name
# A B C D E F G H I J K L M N O P Q R S T U V W X Y Z

Gentry Montgomery - Trying To Survive chords

Highlighted       Show chord diagrams
Transcribed By:Jon Pascuzzi
Email: Warlock91590@yahoo

All chords are played in positions they would be in Droped C tuning

Tuning: Drop C

 INTRO RIFF:
                      L/R..................
d|---------------------------------------------------------------|
A|---------------------------------------------------------------|
F|---------------------------------------------------------------|
C|--2h4-0------0----------------------------------------------0--|
G|---------0h2--------------------------------------------0h2----|
C|----------------3b4-0------------------------------------------|


VERSE 1: 

C                       Bb                   
I've been lookin' for a sign
F                   C
Runnin' through the rain
              Bb
Shiver to the bone
F                           C
But I still can't shake the pain

VERSE 2:         
                        Bb           
I've been lookin' for a sign 
F              C
Rollin' on the ground
              Bb
What did I do today
F                      C
Well, I can't remember now


CHORUS: (w/a lil bit of crunch)

Fsus             F
I'm just tryin' to survive
                    C
The best way I know how
                       G
My heart just keeps on wanting
                            C
The one who doesn't want me now
Fsus         F
So what if I go crazy
****See Note***        Bb
Goin' there keeps me alive
                G
Livin' makes it clear
                     Bb
I'm just stuck right here
          C
Tryin' to survive


****NOTE****
PLAY THIS CHORD BEFORE SWITCHING TO Bb:
e|------x---------------------------------------------------------|
B|------3---------------------------------------------------------|
G|------2---------------------------------------------------------|
D|------0---------------------------------------------------------|
A|------2---------------------------------------------------------|
E|------x---------------------------------------------------------|


VERSE 3:
          
C                    Bb
But I wont stay down long 
F                C
And I'll be back again
                   Bb
I'll even learn to smile
F                       C
Hey, I just wish I knew when

(REPEAT CHORUS)

-----------------------------------------------------------------------------
| /  slide up
| \  slide down
| h  hammer-on
| p  pull-off
| ~  vibrato
| +  harmonic
| x  Mute note
| b  Bend
| L/R Let Ring
Tap to rate this tab
# A B C D E F G H I J K L M N O P Q R S T U V W X Y Z