Song name
# A B C D E F G H I J K L M N O P Q R S T U V W X Y Z

Gentry Montgomery - You Do Your Thing tab

e--------------------------------------------------------------------------|
B-----------3--------------------------3---------3---------3---------------|
G------2/4----------0------0--------0----0--------------2-------------0----|
D---0------------0-------0-------0---------0---------0-------------0-------|
A-------------2--------1------3---------------------------------2----------|
E--------------------------------------------------------------------------|

e-------------------|
B-------------------|
G--------0----------|
D-----0-----0h2-0h2-|
A---1--------3---3--|
E-------------------|

h=hammer-on
/=slide
Tap to rate this tab
# A B C D E F G H I J K L M N O P Q R S T U V W X Y Z