Song name
# A B C D E F G H I J K L M N O P Q R S T U V W X Y Z

Gentry Montgomery - Hillbilly Shoes tab

These guys kick a$$ and this song proves it...
(DROP D)
--h=hammer on
--p=pull off
--

e   --------------------------------------------------------------------|
B   --------------------------------------------------------------------|
G   --------------------------------------------------------------------|
D   ---------2p0-0-0----------2p0-0-0---------2p0-0-0-------------------|
A   -0h2-2-2---------0h2-2-2----------0h2-2-2---------2p0---------------|
D   ------------------------------------------------------2p0-----------|


e   --------------------------------------------------------------------|
B   --------------------------------------------------------------------|
G   --------------------------------------------------------------------|
D   ---------2p0-0-0------4p0-2p0-0-0--------2p0-0-0--------------------|
A   -0h2-2-2---------0h2--------------0h2-2-2--------2p0----------------|
D   ----------------------------------------------------2p0-------------|

Enjoy...
-Jonesy
Tap to rate this tab
# A B C D E F G H I J K L M N O P Q R S T U V W X Y Z