Song name
# A B C D E F G H I J K L M N O P Q R S T U V W X Y Z

Geoff Achison - Dont Play Guitar Boy tab

-------------------------------------------------------------------------------
		Don't Play Guitar Boy - Geoff Achison
-------------------------------------------------------------------------------
Tabbed by:Jack O'Brien
Email:j.obrien1@hotmail.co.uk

Tuning: EADGBe (Standard)

************************************

| s   slide 
| h   hammer-on
| p   pull-off

************************************

e|-----------------------------------------------------------2-2-2--------------|
B|-----------------------------------------------------------0-0-0--------------|
G|----4-----------3-----------2--------0h1-------------------2-2-2---1----------|
D|-----------------------------------------------------------1-1-1---2----------|
A|-5-----5-----4-----4-----3-----3-----0h2---------0--1--2---2-2-2---2----------|
E|------------------------------------------------------------------------------|

e|--------------------7h9p7---------------------------------------3--0----------|
B|-5s9--9----8---7------------8--10--8--0---------2--1--2---0-------------------|
G|------------------------------------------------2--1--2-----------------------|
D|-5s9--9--8-----7--------------------------------2--1--2-----------------------|
A|------------------------------------------------------------------------------|
E|------------------------------------------0-----------------------------------|

e|---------------------------------------------------------------2----2---------|
B|--3--2--0---------0h1--1--1--1--1------------------------------2----2---------|
G|-----------2------0----0--0--0--0---1-1-----------1------------2h4--2---------|
D|-----------------------2--2--2--2---2-2------------------------2h4--2---------|
A|------------------3----3--3--3--3---2-2---0--3--4----4--3--2------------------|
E|------------------------------------------------------------------------------|

e|-2s5-5555----------3--0-------------------2-----2---------------------2-------|
B|-2s5-5555----------------3--0-------------2-----------------------------------|
G|-2s5-5555----1----------------------------------2-----0--1------------2-------|
D|-2s5-5555----2-----------------------2----------1-----0--2------------1-------|
A|-------------2--------------------3-------------2-----0--2---0--1--2--2-------|
E|------------------------------------------------------------------------------|



http://www.geoffachison.com/
Tap to rate this tab
# A B C D E F G H I J K L M N O P Q R S T U V W X Y Z