Song name
# A B C D E F G H I J K L M N O P Q R S T U V W X Y Z

Geoffrey Oryema - Makambo tab

sorry i could only get the low notes:

/-slide


E----------------------------------------------------------------------------|
B----------------------------------------------------------------------------|
G----------------------------------------------------------------------------|
D---------------------------------------------------------------------5------|
A-----------------5/6--5------------------------------------------------6-5--|
e-6--6--5--3---6---------6---6--6--5--3---6--1---3----6--6--5--3---6-------6-|

----------------------------------------------------------------------------|
----------------------------------------------------------------------------|
----------------------------------------------------------------------------|
----------------------------------------------------------------------------|
----------------------------------------------------------------------------|
---6--6--5--3----6--1---3---------------------------------------------------|
Tap to rate this tab
# A B C D E F G H I J K L M N O P Q R S T U V W X Y Z