Song name
# A B C D E F G H I J K L M N O P Q R S T U V W X Y Z

Geographer - Verona tab

Artist: Geographer
Title: Verona
Album: Animal Shapes


If you ended up here, then we have something great in common.
This is my first tab..please message me if you see any corrections.
My youtube cover is played differently.



Original - Capo 1
AllSaint's Basement ver. - No Capo


INTRO
E|--------------------------------------------------|
B|-----1-----------------------------------1--------|
G|-----------0-----2-----2-----2-----0-----------2--|
D|--------------------------------------------------|
A|--------------------------1-----1-----1-----1-----|
E|--1-----1-----1-----1-----------------------------|    repeat x 3



E|--------------------------------------------------|
B|-----1--------------------------------------------|
G|-----------0-----2-----2-----2-----0---hold-------|
D|--------------------------------------------------|
A|--------------------------1-----1-----------------|
E|--1-----1-----1-----1-----------------------------|




INTRO/VERSE -Repeat
E|--------------------------------------------------------------------------|
B|-----1-----1-----------------1-----1-----------------1-----1--------------|
G|-----------------0-----2-----------------0-----2-----------------0-----2--|
D|--0-----0-----0-----0-----------------------------------------------------|
A|--------------------------0-----0-----0-----0-----1-----1-----1-----1-----|
E|--------------------------------------------------------------------------|


E|--------------------------|
B|-----------1--------------|
G|-----------------0-----2--|
D|-----3--------------------|
A|--------------------------|
E|--1-----1-----1-----1-----|
Tap to rate this tab
 
# A B C D E F G H I J K L M N O P Q R S T U V W X Y Z