Song name
# A B C D E F G H I J K L M N O P Q R S T U V W X Y Z

Georg Baker Selection - Little Green Bag tab

Help us improve GuitareTab! Take a short survey!
Little Green Bag - George Baker Selection
(From the Motion Picture Reservoir Dogs)
-----------------------------------------

Intro:
(Bass arranged for guitar)
e||-----------------------|----------------------------|
B||-----------------------|----------------------------|
G||-0---0-3-0---0-0-------|----------------------0-3-0-|
D||---3-------3-----3---0-|---0---0-3-0---0-3----------|
A||-------------------3---|-----3-------3--------------|
E||-----------------------|----------------------------|


    Yeah
    G                                      F     D
    Lookin' back on the track for a little green bag
    D                                    G
    Got to find just a kind or losin' my mind
    G                                    F  D
    Outside in the night, outside in the day
    D                                        G
    Lookin' back on the track gonna do it my way
    G                                    F  D
    Outside in the night, outside in the day
    D                                        G
    Lookin' back on the track gonna do it my way
    G
    Lookin' back

Break:
e||-----------------------|----------------------------|
B||-------3---------------|------------------------3---|
G||-4-2-4---4-2-4-4-2-----|---------2-------2----4---4-|
D||-------------------2-4-|---4-2-4---4-2-4------------|
A||-----------------------|----------------------------|
E||-----------------------|----------------------------|

    G
    Lookin' for some happiness
        G                           D
    But there is so a loneliness to find
                C                Em
    Turn to the left turn to the right
              F                D
    Lookin' upstairs lookin' behind

Solo:
e||----------------------|------------------------|-------------|
B||--/8-8-10-10-8-8-7----|-7-8-8-7-7--------------|-------------|
G||--------------------9-|-----------9-9-7------7-|-------------|
D||----------------------|-----------------9-10---|---10--9--7--|
A||----------------------|------------------------|-------------|
E||----------------------|------------------------|-------------|

e||----------|---------------------------------|-----------|---------|
B||--8-10-8--|-11-8--11-8--11-8--11-8--11-8----|-----------|------7--|
G||----------|-------------------------------9-|-7-9-7-10--|--9-7----|
D||----------|---------------------------------|-----------|---------|
A||----------|---------------------------------|-----------|---------|
E||----------|---------------------------------|-----------|---------|

    Lookin' for some happiness
    But there is so a loneliness to find
    Turn to the left turn to the right
    Lookin' upstairs lookin' behind

    (Solo)

    Lookin' back on the track for a little green bag
    Got to find just a kind or losin' my mind
    Outside in the night, outside in the day
    Lookin' back on the track gonna do it my way
    Lookin' back on the track for a little green bag
    Got to find just a kind or losin' my mind

    (Break)

    Lookin' for some happiness
    But there is so a loneliness to find
    Turn to the left turn to the right
    Lookin' upstairs lookin' behind

    G#
    Lookin' for some happiness
        G#                          D#
    But there is so a loneliness to find
                C#               Fm
    Turn to the left turn to the right
            F#               D#
    Lookin' upstairs lookin' behind

    (Solo)


FINITO!
Hope this helps PHISH.....
Related for Little Green Bag tab