Song name
# A B C D E F G H I J K L M N O P Q R S T U V W X Y Z

Georg Riedel - Alle Vi Barn I Bullerbyn tab

Easy tabs for the "Alla vi barn i Bullerbyn" theme melody
Played with no capo 

e--9-5-7-9-5---5-7-9-10-9-7--9-5-7-9-5-12-9-10-9-7-5--|
B------------5----------------------------------------|
G-----------------------------------------------------|
D-----------------------------------------------------|
A-----------------------------------------------------|
E-----------------------------------------------------|

e--9-5-7-9-5---5-7-9-10-9-7--9-5-7-9-5-12-9-10-9-7-5--|
B------------5----------------------------------------|
G-----------------------------------------------------|
D-----------------------------------------------------|
A-----------------------------------------------------|
E-----------------------------------------------------|

I couldn't figure the mid part of the theme, but the tabs above are repeated in 
the end of the melody.
Tap to rate this tab
# A B C D E F G H I J K L M N O P Q R S T U V W X Y Z