Song name
# A B C D E F G H I J K L M N O P Q R S T U V W X Y Z

George Benson - Broadway tab

--------------------------------------------|------------------------------e
--------------------------------------------|------------------------------a
---------------------7~~--------------------|--------------------------12~~d
---7-----------7-5-7---------7--------------|----12-----------12-10-12-----g
-7---5-------7-------------7---5-----7~~----|-12----10-----12--------------b
-------5-------------------------5----------|----------10------------------e

---------------------|e
---------------------|a
---------------------|d
----12---------------|g
-12----10-----12-----|b
----------10---------|e
~ means do some vibrato on that note

do each group twice before moving on to the next group

repeat throughout whole song
Tap to rate this tab
# A B C D E F G H I J K L M N O P Q R S T U V W X Y Z