Song name
# A B C D E F G H I J K L M N O P Q R S T U V W X Y Z

George Benson - Hipping The Hop tab

Although there is alot to the whole song I have decided to leave the main solos but just 
concentrate on the main themes

Main Intro (piano octaves)
-----------------------------------------------------------------|
-----------------8-----------------------------------------------|
---------------7-------10----------------------------------------|
-8-8-8---8-8-----5-10-----8--------------------------------------|
---------------5--------8----------------------------------------|
-6-6-6---6-6--------8-----6--------------------------------------|



-6----6-10-8-5----7-----10-7-------8-11--10-11-10--------14------|
-----6---------6---8-10------10-8----------------13-12------10---|
----7--------------------------------------------------12--------|
---8-------------------------------------------------------------|
-----------------------------------------------------------------|
-----------------------------------------------------------------|



15-15--------------15---------------------------------------------|
------14-13-11---------11-13-14-13-11--------11-11----11----10-11-|
--------------12-10--------------------14-10-------------10-------|
------------------------------------------------------------------|
------------------------------------------------------------------|
------------------------------------------------------------------|

Bridge

-----------------------------------------------------------------|
12-11-------10-------9-------5-8-5-------------------------------|
11-10--------9-------8-------------5---5---7-5-------------------|
-------------------------------------8---------8-----------------|
-------------------------------------------------8-6-------------|
-----------------------------------------------------------------|
Tap to rate this tab
 
# A B C D E F G H I J K L M N O P Q R S T U V W X Y Z