Song name
# A B C D E F G H I J K L M N O P Q R S T U V W X Y Z

George Ezra - Budapest tab

-------------------------------------------------------------------------------
                              Budapest - George Ezra
-------------------------------------------------------------------------------
Tabbed by: ThijsOdV
E-mail: thijssie92@hotmail.com

Tuning: Regular (EADGBe)

Capo 1


Intro
Verse 2x
Chorus
Verse
Chorus 2x
Solo
Verse (quiet - bass notes only)
Chorus 2x
Verse (quiet - bass notes only)


Intro:
e|---------------------------------------------------|
B|-----0-----0-----0-----0-----0-----0-----0-----0---|
G|-----1-----1-----1-----1-----1-----1-----1-----1---|
D|-----2-----2-----2-----2-----2-----2-----2-----2---|   (x2)
A|--------0h2---------0h2--------0h2---------0h2-----|
E|--0-----------0-----------0-----------0------------|



Verse:
"My house in Budapest..."
e|---------------------------------------------------|
B|-----0-----0-----0-----0-----0-----0-----0-----0---|
G|-----1-----1-----1-----1-----1-----1-----1-----1---|
D|-----2-----2-----2-----2-----2-----2-----2-----2---|   (x2)
A|--------0h2---------0h2--------0h2---------0h2-----|
E|--0-----------0-----------0-----------0------------|

"For you...ouuuu" (this last part is played twice, except for the first verse)
e|---------------------------------------------------|
B|-----2-----2-----2-----2-----2-----2-----2-----0---|
G|-----2-----2-----2-----2-----2-----2-----2-----0---|
D|-----2-----2-----2-----2-----2-----2-----2-----0---|
A|--0-----0-----0-----0-----0-----0-----0-----0------|
E|---------------------------------------------------|

e|---------------------------------------------------|
B|-----0-----0-----0-----0-----0-----0-----0-----0---|
G|-----1-----1-----1-----1-----1-----1-----1-----1---|
D|-----2-----2-----2-----2-----2-----2-----2-----2---|
A|--------0h2---------0h2--------0h2---------0h2-----|
E|--0-----------0-----------0-----------0------------|



Chorus:
"Give me one good reason..."
e|---------------------------------------------------|
B|-----4-----4-----4-----4-----2-----2-----2-----0---|
G|-----4-----4-----4-----4-----2-----2-----2-----0---|
D|-----4-----4-----4-----4-----2-----2-----2-----0---|
A|--2-----2-----2-----2-----0-----0-----0-----0------|
E|---------------------------------------------------|

e|---------------------------------------------------|
B|-----0-----0-----0-----0-----0-----0-----0-----0---|
G|-----1-----1-----1-----1-----1-----1-----1-----1---|
D|-----2-----2-----2-----2-----2-----2-----2-----2---|
A|--------0h2---------0h2--------0h2---------0h2-----|
E|--0-----------0-----------0-----------0------------|

"Baby if you hold me..."
e|---------------------------------------------------|
B|-----4-----4-----4-----4-----2-----2-----2-----0---|
G|-----4-----4-----4-----4-----2-----2-----2-----0---|
D|-----4-----4-----4-----4-----2-----2-----2-----0---|
A|--2-----2-----2-----2-----0-----0-----0-----0------|
E|---------------------------------------------------|

e|---------------------------------------------------|
B|-----0-----0-----0-----0-----0-----0-----0-----0---|
G|-----1-----1-----1-----1-----1-----1-----1-----1---|
D|-----2-----2-----2-----2-----2-----2-----2-----2---|
A|--------0h2---------0h2--------0h2---------0h2-----|
E|--0-----------0-----------0-----------0------------|




Solo (01:53)
e|--0--2--0-----0---|
B|-----------0------|
G|------------------|
D|------------------|   (x4)
A|------------------|
E|------------------|


I hope you enjoy playing this song as much as I do. If you have any comments, please let me know!


************************************

| /   slide up
| \   slide down
| h   hammer-on
| p   pull-off
| ~   vibrato
| +   harmonic
| x   Mute note
| b   Bend
| pb  Pre-bend
| br  Bend release
| pbr Pre-bend release
| brb Bend release bend

************************************
Tap to rate this tab
 
# A B C D E F G H I J K L M N O P Q R S T U V W X Y Z