Song name
# A B C D E F G H I J K L M N O P Q R S T U V W X Y Z

George Formby - When Im Cleaning Windows tab

     C          C7        F         D7
E|---------|---------|---------|---------|
B|---------|---------|---------|---------|
G|---------|---------|---------|---------|
D|---------|-------0-|-1-0---0-|-1-0---0-|
A|-3-3-3-3-|-3-3-3---|-----3---|-----3---|
E|---------|---------|---------|---------|

     C         A7        G#7       C
E|---------|---------|---------|---------|
B|---------|---------|---------|---------|
G|---------|---------|---------|---------|
D|-2-2-----|---------|-1-1-1-1-|-2-------|
A|-----3---|-1-0-----|---------|---3-----|
E|-------3-|-----3---|---------|---------|
Tap to rate this tab
# A B C D E F G H I J K L M N O P Q R S T U V W X Y Z