Guitaretab - guitar tabs
Song name
# A B C D E F G H I J K L M N O P Q R S T U V W X Y Z

George Gershwin - I Got Rhythm tab

George Gershwin - I Got Rhythm

This is the chord melody for I Got Rhythm by George Gershwin.
I do not know nor do I want to figure out the names of all of these chords.
The timing of the tab is close, but it isn't exact. There really isn't
an exact way to play it, just listen to the song and get a feel for it.

Play: A A B A

A Section
					      First Ending	     Second
[ Tab from: http://www.guitaretab.com/g/george-gershwin/258958.html ]
e|-----3--6--8----8--6--3-------------6--8---|-1010-8108-6----------|-1010-8108-6---------|
B|--6--3--4--7----6--6--4--6----6--8--6--7---|-10---8----7--6-------|-10---8----7---------|
G|--5--3--5--8----7--7--3--8----7--7--5--8---|-10---8----7--8-------|-10---8----7---------|
D|--5--3--3--7----5--5--5--7----7--6--5--6---|-8----8----5--7-------|-8----8----5---------|
A|--5-----3-------------3--------------------|----------------------|---------------------|
E|-------------------------7----6--6---------|--------------7-------|---------------------|

	Real Ending

e|-1010-8108-6----1010-8108-6---1010-8108--6--------|
B|-10---8----7----10---8----7---10---8-----6--------|
G|-10---8----7----10---8----7---10---8-----5--------|
D|-8----8----5----8----8----5---8----8-----5--------|
A|-----------------------------------------5--------|
E|-----------------------------------------6--------|


B Section

e|--10-10-10-12---10-10-10------8--8--8--10---1311-108-------------|
B|--12-12-12-12---10-10-10-8----10-10-10-10---11---8---------------|
G|--11-11-11-12---10-10-10-10---9--9--9--10---12---8---------------|
D|--10-10-10-10---9--9--9--9----8--8--8--8----10---8---------------|
A|-----------------------------------------------------------------|
E|-------------------------9---------------------------------------|
Related for I Got Rhythm tab
I Got Rhythm chords by George Gershwin