Guitaretab - guitar tabs
Song name
# A B C D E F G H I J K L M N O P Q R S T U V W X Y Z

George Harrison - Beware Of Darkness tab

George Harrison - Beware of Darkness
Tabbed by dionysus85 (dionysus1985@hotmail.com)
theres already chords for this song but they lack the solo
so here it is (as i heard it)

Solo: goes over the bridge
E|---------------------------------------|
B|---------------------------------------|
G|--9-11-11b-11b-9----9-11-13-13b-13b-11-|
D|---------------------------------------|
A|---------------------------------------|
E|---------------------------------------|
[ Tab from: http://www.guitaretab.com/g/george-harrison/119368.html ]
E|---------------------------------------------15---|
B|-------10-12b--b12-10-12b--12-14-14b-b14-12-------|
G|--9/11--------------------------------------------|
D|--------------------------------------------------|
A|--------------------------------------------------|
E|--------------------------------------------------|

E|-12--------14----15b--14--------------|
B|-----12/14----------------14b---------|
G|--------------------------------------|
D|--------------------------------------|
A|--------------------------------------|
E|--------------------------------------|

E|----------------------------------------|
B|--b14-b13-12----------------------------|
G|----------------------------------------|
D|----------------------------------------|
A|----------------------------------------|
E|----------------------------------------|

the "b" before a note arent typos they mean prebends :D
Related for Beware Of Darkness tab
Advertisement will be closed in 10 seconds