Guitaretab - guitar tabs
Song name
# A B C D E F G H I J K L M N O P Q R S T U V W X Y Z

George Harrison - This Is Love tab

THIS IS LOVE - George Harrison

Tabbed by Sebodos aka Zappy the Koala

D       G     Em      A  X2


E |------------------------------------------------------------|
B |--7/1010/12-10-12/15-12/10/12/10---------------10----------|
G |----------------------------------12/11-11/9/11----11/9/11--|
D |------------------------------------------------------------|
A |----------------------------------------------------------12|
E |------------------------------------------------------------|

E |----------------------------------------------------------------|
B |--8-8-7-7-5-5---------------------------------------------------|
G |----------------------------------------------------------------|
D |--5-5-4-4-2-2---------------------------------------------------|
A |----------------------------------------------------------------|
E |----------------------------------------------------------------|



Verse (A D G Em  / A G A G A)
A           D         G            Em     
Precious words drift away from the meaning
A          D             G             Em     A   
and the sun melts the chill from our lives
G               A            G                 A
helping us all to remember what we came here for

Chorus (Bm Em  Bm Em D  F#m  D F#m)
[ Tab from: http://www.guitaretab.com/g/george-harrison/131546.html ]
         Bmsus4   Em7sus4  Bmsus4 Em7sus4
This is love
     Bm           Em     D   F#m    D  F#m
this la la la la love

Verse (A D G Em  / A G A G A)
Little things that will change you
forever
may appear from way out of the blue
making fools of everybody 
who don't understand

Chorus (Bm Em  Bm Em D  F#m  D F#m)

Solo
E |-----------------------------------------------------------|
B |7/10-7/2---7/10-7/2--------------------------------7-5--7-7|
G |---------2----------29/11-9-9/12-12-13-12-10--------------|
D |-----------------------------------------------------------|
A |----------------------------------------------10-7-----7---|
E |-----------------------------------------------------------|

E |---------------------------------------------------------------|
B |-9-7-11/9/12-12/14/16/9---7-5---7--5------------------------8--|
G |-------------------------------------7-7-6/7/6/4/6-4/6/7-6/7--6|
D |------------------------7-----7--------------------------------|
A |---------------------------------------------------------------|
E |---------------------------------------------------------------|


Since our problems have been our own creation
They`also can be overcome
when we use the power provided
free to everyone

Chorus (Bm Em  Bm Em D  F#m  D F#m)
Related for This Is Love tab