Song name
# A B C D E F G H I J K L M N O P Q R S T U V W X Y Z

George Harrison - P2 Vatican Blues tab

w/ slight dist.

E--------------------H---R--------------------------------------------------|
B-----12-12-14-14-14(15)14-12~~---------10-10-12(13)-12-10-12p10--10~~------|
G--/13------------------------------/11-------------------------11----------|
D---------------------------------------------------------------------------|
A---------------------------------------------------------------------------|
E---------------------------------------------------------------------------|


E----5---5---5---5-x--------------------------------------------------------|
B----0---0---0---0-x--5~~~~-------------------------------------------------|
G------------------x--------------------------------------------------------|
D--5---4---3---2---x/6------------------------------------------------------|
A---------------------------------------------------------------------------|
E---------------------------------------------------------------------------|
Tap to rate this tab
# A B C D E F G H I J K L M N O P Q R S T U V W X Y Z