Song name
# A B C D E F G H I J K L M N O P Q R S T U V W X Y Z

George Harrison - While My Guitar Gently Weeps tab

-------------------------------------------------------------------------------
	     While My Guitar Gently Weeps - George Harrison
-------------------------------------------------------------------------------
Tabbed by: mikeyg220

so I was fooling around with the chords for this song and I came up with this 
version, thought it sounded cool so i tabbed it out

enjoy!

Tuning: standard

verse:

----1-&-2-&-3-&-4-&---1-&-2-&-3-&-4-&---1-&-2-&-3-&-4-&---1-&-2-&-3-&-4-&---|
e|------------------|-----------------|-----------------|-------------------|
B|--------0-----1---|-------0-----1---|-------0-----1---|-3-----1-----0-----|
G|--0h2-----2-------|-2-------2-----2-|-2-------2-----2-|---2-----2-----2---|
D|------2-----2---2-|---2-------2-----|---0-------0-----|-----3-----3-------|
A|--0---------------|-----------------|-----------------|-------------------|
E|------------------|-3---3-----------|-2---2-----------|-1-----------------|

----1-&-2-&-3-&-4-&---1-&-2-&-3-&-4-&---1-&-2-&-3-&-4-&---1-&-2-&-3-&-4-&-

e|------0-----------|-----------------|-------2-----2---|-----------------|
B|----------1-----0-|-------0---------|-3-------3-----3-|-------------0---|
G|--2---------2-----|---0-----2---0---|---2-------2-----|-1-----2-------1-|
D|----2---------2---|-----0-----------|-0---0-----------|---2-----2-------|
A|--0-----0---------|-----------------|-----------------|-----2-----2-----|
E|----------------3-|-----------3-----|-----------------|-0---------------|


chorus:

----1-&-2-&-3-&-4-&---1-&-2-&-3-&-4-&---1-&-2-&-3-&-4-&---1-&-2-&-3-&-4-&-

e|--------------0---|-----------------|-----------------|-----------------|
B|--------2---------|-------5---------|-------2-----2---|-------5---------|
G|--2-------2-----2-|-6-------6---6---|-2-------2-----2-|-6-------6---6---|
D|----2-------2-----|---6-------6---6-|---4-------4-----|---6-------6---6-|
A|--0---0-----------|-4---4-----------|-----4-----------|-4---4-----------|
E|------------------|-----------------|-2---------------|-----------------|

----1-&-2-&-3-&-4-&---1-&-2-&-3-&-4-&---1-&-2-&-3-&-4-&---1-&-2-&-3-&-4-&-

e|------------------|-----------------|-------------0---|-------0---------|
B|--3-----3-----3---|---3-----3---3---|-------0---------|-0-------0-------|
G|----4-----4-----4-|-----4-----4---4-|-1-------1-------|---1-------1-----|
D|------4-----4-----|-4-----4---------|---2-------2-----|-----2-------2---|
A|--2---------------|-----------------|-----2-----------|-----------------|
E|------------------|-----------------|-0---------------|-----------------|


************************************

| /   slide up
| \   slide down
| h   hammer-on
| p   pull-off
| ~   vibrato
| +   harmonic
| x   Mute note
| b   Bend
| pb  Pre-bend
| br  Bend release
| pbr Pre-bend release
| brb Bend release bend

************************************
Tap to rate this tab
 
# A B C D E F G H I J K L M N O P Q R S T U V W X Y Z