George Harrison - Give Me Love tab

Give Me Love (George Harrison)

 F                                       Gm7      C7
e----|----|----|-----|-13----|-12----15-|-10----|-8----5-|
B----|----|----|--13-|-13----|-13----17-|-11----|-10---7-|
G----|----|----|-----|-------|----------|-------|--------|
D----|----|----|-----|-------|----------|-------|--------|
A----|----|----|-----|-------|----------|-------|--------|
E----|----|----|-----|-------|----------|-------|--------|

                                                           Give me
 Bbm            C7             Eb         Bb
e-s6-6--s8--8-|-s10-10-s12----|-11-------|-10-11-13-18-|------|
B-s8-8-s10-10-|-s11-11-s13-11-|-------11-|-11-13-15-18-|-15---|
G-------------|---------------|----------|-------------|-15---|
D-------------|---------------|----------|-------------|------|
A-------------|---------------|----------|-------------|------|
E-------------|---------------|----------|-------------|------|

F             Fmaj7        Gm7         C7
Love, give me love, give me   peace on earth.
        Bbm            C7            Eb          Bb
Give me light, give me life, keep me   free from birth.
        F             Fmaj7          Gm7      C7
Give me hope, help me cope with this   heavy load.
       Bbm          C7             Eb           Bb
Trying to touch and reach you with   heart and soul ...
F  Fmaj7  F7      Bb
Oh   m     m   my lord.
F      Fmaj7  F7                Bb
Please  ..  ..  take hold of my hand.
     G7           C7
That I might understand you. Won't you please oh won't you
F             Fmaj7                 Gm7         C7
Give me love, give me love, give me   peace on earth.
        Bbm             C7           Eb          Bb
Give me light, give me life, keep me   free from birth.
        F             Fmaj7          Gm7       C7
Give me hope, help me cope with this    heavy load.
       Bbm            C7           Eb           Bb
Trying to touch and reach you with    heart and soul ...
F  Fmaj7  F7       Bb
Om   m      m   my   lord.

Solo:

                    F                      Fmaj7
e-12-12-12-12-10-8-|----8----8-|-10--8----|-------------|--15-13-------|
B------------------|-10---10---|-11-10-10-|----13----13-|--------13----|
G-12-12-12-12-10-9-|-----------|-------10-|-14----14----|--15-14-14-14-|
D------------------|-----------|----------|-------------|-----------15-|
A------------------|-----------|----------|-------------|--------------|
E------------------|-----------|----------|-------------|--------------|

 F7                              Bb 
e-------------|-----------------|------------|----------17-15-|
B----13----13-|--15-15-13-10-10-|-11------11-|-15-13-11-------|
G-14----14----|-----------------|------------|----------17-15-|
D-------------|--15-15-13-11-11-|-12------12-|-15-13-12-------|
A-------------|-----------------|------------|----------------|
E-------------|-----------------|------------|----------------|

                                        Won't you please oh won't you
  
 Gm7                                C7
e----------------|----------16----|-------|
B-15----12-12-12-|-16-14-12----15-|-17----|
G----------------|----------16----|-------|
D-15----13-13-13-|-16-14-13----15-|-17----|
A----------------|----------------|-------|
E----------------|----------------|-------|



F            Fmaj7                 Gm7         C7
Give me love, give me love, give me   peace on earth.
        Bbm             C7           Eb           Bb
Give me light, give me life, keep me    free from birth.
        F             Fmaj7           Gm7       C7
Give me hope, help me cope with this     heavy load.
       Bbm            C7            Eb           Bb
Trying to  touch and reach you with    heart and soul.
F                Fmaj7                 Gm7         C7
Give me love and give me love, give me   peace on earth.
        Bbm             C7           Eb           Bb
Give me light, give me life, keep me    keep me free from birth.
    F                Fmaj7                   Gm7       C7
Now give me hope and help me cope with this     heavy load.
       Bbm                C7                     Eb              Bb
Trying to . . . touch and reach you with  . . .  heart . . . and soul.

(Bass solo)
F      Fmaj7   F7    Bb

Ending solo:
                    F                      Fmaj7
e-12-12-12-12-10-8-|----8----8-|-10--8----|-------------|-15-13----|
B------------------|-10---10---|-------10-|----13----13-|-------13-|
G-12-12-12-12-10-9-|-----------|----------|-14----14----|----------|
D------------------|-----------|----------|-------------|----------|
A------------------|-----------|----------|-------------|----------|
E------------------|-----------|----------|-------------|----------|

 F7                                   Bb 
e-------------|-15-13----------------|-------|
B----13----13-|-------15-13----------|-11----|
G-14----14----|-------------14-12-10-|-------|
D-------------|----------------------|-------|
A-------------|----------------------|-------|
E-------------|----------------------|-------|

Tabbed by Bruce51
Tap to rate this tab
 
# A B C D E F G H I J K L M N O P Q R S T U V W X Y Z