Song name
# A B C D E F G H I J K L M N O P Q R S T U V W X Y Z

George Harrison - Gopala Krishna tab

Tuning: Standard Tuning


PART 1
E------------------------------------|
B------------------------------------|
G------------------------------------|
D--------2-2h4--7-6-4-6-4------------|
A--2-2h4-----------------------------|
E------------------------------------|

PART 2
E------------------------------------|
B------------------------------------|
G------------------------------------|
D--------2-2h4--77-77-66-7-6-4-------|
A--2-2h4-----------------------------|
E------------------------------------|

DESCEND
E------------------------------------|
B------------------------------------|
G------------------------------------|
D--9--9-7--7-6--6-4------------------|
A------------------------------------|
E------------------------------------|

INTRO: PART1 PART2 PART1 PART2 DESCEND



B          A     E
Om Hari Om Radha Krishna
B          A     E
Om Hari Om Rama Radha
B          A     E                    DO THIS WITH ARPEGGIO
Om Hari Om Bala Shiva
B          A     E
Om Hari Om Rama Sita

PART 1
Om Hari Om Gopala Krishna
PART 2
Govinda Jai Gopala Jai Jaya
PART 1
Om Hare Om Gopala Krishna
PART2
Govinda Jai Gopala Jai Jaya
PART1
Gopala Krishna
PART2
Govinda Jai Gopala Jai Jaya


THIS IS MY FIRST TAB, SO DON'T BE CRUEL,  ear-transcribed
EMAIL ME FOR ANY CORRECTION: nicolas.coddou@gmail.com

HOPE YOU LIKE IT! :)
Tap to rate this tab
 
# A B C D E F G H I J K L M N O P Q R S T U V W X Y Z