George Harrison - Your Love Is Forever tab

---------------------------------------------------------------------------
		Your Love is Forever - George Harrison
---------------------------------------------------------------------------
Tabbed by: maguri
Tuning: Standard

Your Love is Forever (1979)
(Harrison)
From "George Harrison"

This wasn't easy ... 
When I play it, it sounds good. I hope the tab is close to that.
Corrections and feedback are highly welcome.

Enjoy!

---------------------------------------------------------------------------
TAB

| /   slide up
| h   hammer-on
| p   pull-off
| +   harmonic

Guitar tuned down from:
Standard: E-A-D-G-B-e 
to
D-Tuning: D-A-D-F#-A-d


INTRO I
   D
 d|----0---0-0---0-|--0---0-0-------|----0---0-0---0-|--0---0-0-------|
 A|----0---0-0---0-|--0---0-0-------|----0---0-0---0-|--0---0-0-------|
F#|----0---0-0---0-|--0---0-0-------|----0---0-0---0-|--0---0-0-------|
 D|----0---0-0---0-|--0---0-0-------|0---0---0-0---0-|--0---0-0-------|
 A|0---------------|--------------0-|----------------|--------------0-|
 D|0---------------|----------0-/4--|----------------|----------0-/4--|

INTRO II
   D                Dmaj7            D                      [D   A   D]
 d|----0---0-0-----|----------------|----------------|------5+--7+--12+|
 A|----0---0-0---4-|--4-4---4-4---0-|----------------|------5+--7+--12+|
F#|----0---0-0---0-|--0-0---0-0---0-|------0-----0h1p|0-----5+--7+--12+|
 D|----0---0-0---0-|--0-0---0-0---0-|------0-----0---|------5+--7+--12+|
 A|0-----0---------|------0---------|0-----------0---|----0-5+--7+--12+|
 D|0-----0---------|------0---------|0-----------0---|----0-5+--7+--12+|

   D                Dmaj7            D 
 d|----0---0-0-----|--------2-0-----|----------------|--------0-------|
 A|----0---0-0---4-|--4-4---0-0-4---|0---------------|------0---0-----|
F#|----0---0-0---0-|--0-0---0-0-0---|0-----0---------|----0-------0---|
 D|----0---0-0---0-|--0-0---0-0-0---|0-----0---------|--0-----------0-|
 A|0-----0---------|------0---------|0-----0-------0-|0---------------|
 D|0-----0---------|------0---------|0-----0-------0-|0---------------|

   G                Asus4   A        Dmaj7         Dsus2    D   Dmaj7
 d|----------------|----------------|--------------2-|------0---------|
 A|--5-5---5-5-----|--7-7---7---7---|4-4---4---4---0-|--0---0---4-----|
F#|--5-5---5-5-----|--8-8---7---7---|0-0---0---0---0-|----0-0---0-----|
 D|--5-5---5-5-----|--7-7---7---7---|0-0---0---0-----|------0---0-----|
 A|5-------------7-|----------------|0---------------|----------------|
 D|5-------------7-|----------------|0---------------|----------------|

   D             Asus4    A  Asus4   Gsus4 G          G           A
 d|----------------|----------------|----------------|----------------|
 A|9-9-9-12------7-|--7---7---7---5-|5---5-----------|----------------|
F#|0-0-0-0-10--8-8-|--8---7---8---6-|6---5-----------|5-5-5-5-5---7---|
 D|0-------0---0-7-|--7---7---7---5-|5---5-----------|5-5-5-5-5---7---|
 A|0-------0-----7-|--7---7---7-----|5---5---------5-|5-5-5-5-5---7---|
 D|0-------0-----7-|------------7---|5-------------5-|5-5-5-5-5---7---|


VERSE
   D                Dmaj7            D                      [D   A   D]
 d|----0---0-0-----|----------------|----------------|------5+--7+--12+|
 A|----0---0-0---4-|--4-4---4-4---0-|----------------|------5+--7+--12+|
F#|----0---0-0---0-|--0-0---0-0---0-|------0-----0h1p|0-----5+--7+--12+|
 D|----0---0-0---0-|--0-0---0-0---0-|------0-----0---|------5+--7+--12+|
 A|0-----0---------|------0---------|0-----------0---|----0-5+--7+--12+|
 D|0-----0---------|------0---------|0-----------0---|----0-5+--7+--12+|

   D                Dmaj7            D 
 d|----0---0-0-----|--------2-0-----|----------------|--------0-------|
 A|----0---0-0---4-|--4-4---0-0-4---|0---------------|------0---0-----|
F#|----0---0-0---0-|--0-0---0-0-0---|0-----0---------|----0-------0---|
 D|----0---0-0---0-|--0-0---0-0-0---|0-----0---------|--0-----------0-|
 A|0-----0---------|------0---------|0-----0-------0-|0---------------|
 D|0-----0---------|------0---------|0-----0-------0-|0---------------|

   G                Asus4   A        Dmaj7         Dsus2    D   Dmaj7
 d|----------------|----------------|--------------2-|------0---------|
 A|--5-5---5-5-----|--7-7---7-----7-|4-4---4---4---0-|--0---0---4-----|
F#|--5-5---5-5-----|--8-8---7-----7-|0-0---0---0---0-|----0-0---0-----|
 D|--5-5---5-5-----|--7-7---7-----7-|0-0---0---0-----|------0---0-----|
 A|5-------------7-|----------------|0---------------|----------------|
 D|5-------------7-|----------------|0---------------|----------------|

   D             Asus4    A  Asus4   Gsus4 G          G           A
 d|----------------|----------------|----------------|----------------|
 A|9-9-9-12------7-|--7---7---7---5-|5---5-----------|----------------|
F#|0-0-0-0-10--8-8-|--8---7---8---6-|6---5-----------|5-5-5-5-5---7---|
 D|0-------0---0-7-|--7---7---7---5-|5---5-----------|5-5-5-5-5---7---|
 A|0-------0-----7-|--7---7---7-----|5---5---------5-|5-5-5-5-5---7---|
 D|0-------0-----7-|------------7---|5-------------5-|5-5-5-5-5---7---|


Middle 8
   D             Asus4    A  Asus4   F              Csus4   C
 d|----------------|----------------|------10--------|----------------|
 A|9-9-9-12------7-|--7---7-7-------|1212121210----10|--10--1010------|
F#|0-0-0-0-10--8-8-|--8---7-7-------|1111111111--1111|--11--1010------|
 D|0-------0---0-7-|--7---7-7-------|101010--10--1010|--10--1010------|
 A|0-------0-----7-|--7---7-7-------|--------------10|--10--1010------|
 D|0-------0-----7-|----------------|--------------10|------1010------|

   D             Asus4    A  Asus4   Gsus4 G    G/D   D
 d|----------------|----------------|----------------|0---------------|
 A|9-9-9-12------7-|--7---7---7---5-|5---5-------2---|0---------------|
F#|0-0-0-0-10--8-8-|--8---7---8---6-|6---5-------1---|0---------------|
 D|0-------0---0-7-|--7---7---7---5-|5---5-------0---|0---------------|
 A|0-------0-----7-|--7---7---7-----|5---5-------0---|0-------------0-|
 D|0-------0-----7-|------------7---|5-----------0---|0---------0-/4--|


---------------------------------------------------------------------------
ARRANGEMENT

INTRO I
INTRO II
VERSE
VERSE
MIDDLE 8
INTRO I
SOLO (= first 8 bars of VERSE)
VERSE ( second part)
MIDDLE 8 (first part: instrumental)

---------------------------------------------------------------------------
LYRICS

VERSE 1
Sublime in the summertime, warm and lazy
These are perfect days like Heaven's about here,
But unlike summer that came and went
Your love is forever,
I feel it and my heart knows
That we share it together.

VERSE 2
Resigned to the wintertime's cold and dreary
Peering into fire flames, burning I know
That unlike winter that came and went
Your love is forever
I feel it and my heart knows
That we share it together

MIDDLE 8
I feel it and my heart knows you're the one
The guiding light in all your love shines on
The only lover worth it all
Your love is forever

Tap to rate this tab
 
# A B C D E F G H I J K L M N O P Q R S T U V W X Y Z