Song name
# A B C D E F G H I J K L M N O P Q R S T U V W X Y Z

George Harrison - Here Comes The Sun tab

use capo on the 7th fret
Standart tuning


Intro+Verse:

-2-------0h2---------2-0---------0------------------0---|
-3---3----------3--------3--0--3---3---0---2h0-2--3---3-|
-2--------------2-----------0--------------0------------|
-0--------------0-----------0--------------2------------|
-------------------------------------------0------------|
--------------------------------------------------------|

-----2------0h2-------2--0----------2--0----------|
-----3---3--------2---------3---0---------3---2---|
-----2------------3-------------0-------------0---|
-----0------------0-------------0-------------2---|
----------------------------------------------0---|
--------------------------------------------------|


Refrain:

----2---0-2-----------2------0--2----------2--0--2-------0-------|
----3---------3----------3------------0---------------3------3---|
----2---------------------------------0---------------1----------|
----0-------------0-------------------0---------------2----------|
-0---------------------------------------------------------------|
-----------------------------------------------------------------|

-----2---0--------------------0-----0-------0-----3-----------------|
-----3------3--------------3------3------3------0------3h2--0-------|
-----2---------2---------------------------------------0-------2----|
--0----------------------------------------------------2------------|
---------------------2--------0---------------0--------0------------|
-------------------------------------3------------------------------|

Bridge:

---------------------------------------------------2---2---2---2---2-----------------------------|
----------------1----------1-------0---------0-----3---3---3---3---3-------2---2---2-------------|
--------------2----------0-------0-----------------2---2---2---2---2-------0---0---0-------------|
-------2----3----------2-------0---------2---------0---0---0---0---0-------2---2---2-------------|
--0h4----------------------------------------------------------------------0---0---0-------------|
-------------------------------------------------------------------------------------------------|
Tap to rate this tab
# A B C D E F G H I J K L M N O P Q R S T U V W X Y Z