Song name
# A B C D E F G H I J K L M N O P Q R S T U V W X Y Z

George Harrison - Window Window tab

Window Window (Acoustic Demo)
- Written by George Harrison


Intro:

George: "Phil, this is the one Window Window and it's a bit silly. Are you ready? Phil?"

E|--3----3-3-3--3------|
B|--0h1--1-1-1--0------|
G|--0-0--0-0-0--0---0--| <--3X
D|--0h2--2-2-2--0-0-0--|
A|--x-------------2-2--|
E|--3-------------3----|

E|-------------3-3-3----3-3-3--|
B|-------------0-0-0----0-0-0--|
G|-------------0-0-0----0-0-0--| 
D|--2--0--0----0-0-0----0-0-0--|
A|--3--2--0-----------2--------|
E|-----------3--------3--------|

Verse:

  G                     Am
I once knew a beautiful girl
    Em                         Am
Who had long blonde hair and a curl
    G            Bm       Am            Em
She looked after me and I looked before her
    C            Am         G*     D
But that time it hadn't occur 

   G                          Am
AS time turned my head and my mind
    Em                       Am
The pleasures seem harder to find
    G           Bm          Am           Em
But then it was such that I knew far too much 
       C             Am         G*    D    
Now I stay home and slowly unwind

Chorus:

      G                     Am
And I look out the window to see
  Em                     Am
I look out the window and see
  G            Bm         Am    Em
I look out the window and see - eee
      C                  Am          G
But I get the feeling it doesn't see me

Refrain:

E|----3-3-3-3--3----3-3-3--|--3---3-3--3----3-3-3--|--3---3-3--3----3-3-3--|
B|----0-0-0-0--0h1--1-1-1--|--0---0-0--0h1--1-1-1--|--0---0-0--0h1--1-1-1--|
G|----0-0-0-0--0-0--0-0-0--|--0---0-0--0-0--0-0-0--|--0---0-0--0-0--0-0-0--|
D|----0-0-0-0--0h2--2-2-2--|--0---0-0--0h2--2-2-2--|--0---0-0--0h2--2-2-2--|
A|--2----------x-----------|----2------x-----------|----2------x-----------|
E|--3----------3-----------|----3------3-----------|----3------3-----------|

E|--3------------------3-3-3-3--|
B|--0------------------0-0-0-0--|
G|--0---0-0------------0-0-0-0--| 
D|--0-0-0-0--2--0--0---0-0-0-0--|
A|----2-2-2--3--2--0------------|
E|----3--------------3----------|

Verse:

  G                    Am
I go for a walk in the shed
   Em                          Am
To check out the paint and the lead
         G          Bm           Am           Em
But it's always the change and it gives me to shame 
     C           Am           G*    D
So I go home and go back to bed

Chorus:

      G                     Am
And I look out the window and see
Em                     Am
Look out the window and see
  G            Bm         Am    Em
I look out the window and see - eee
      C                  Am          G
But I get the feeling it doesn't see me

Outro:

E|----3-3-3-3--3----3-3-3--3--|--------------------------|
B|----0-0-0-0--0h1--1-1-1--0--|-------0h1--1-1-1--0------|
G|----0-0-0-0--0-0--0-0-0--0--|-------0-0--0-0-0--0------|
D|----0-0-0-0--0h2--2-2-2--0--|----0--0h2--2-2-2--0---0--|
A|--2----------x--------------|--2-2--x-------------2-2--|
E|--3----------3--------------|--3----3-------------3----|

E|----------------------------|
B|----------------------------|
G|----------------------------| 
D|--2--0--0-------------------|
A|--3--2--0-------------------|
E|-----------3----------------|



-----| Chords |-------------------------------- 

   Am      Bm       G      G*       C       D      
 
 EADGBE  EADGBE  EADGBE  EADGBE  EADGBE  EADGBE  
 x02210  x24432  320003  xx0033  x32010  xx0232 
Tap to rate this tab
# A B C D E F G H I J K L M N O P Q R S T U V W X Y Z