Song name
# A B C D E F G H I J K L M N O P Q R S T U V W X Y Z

George Harrison - Dark Sweet Lady tab

---------------------------------------------------------------------------
                Dark Sweet Lady  George Harrison
---------------------------------------------------------------------------
Tabbed by: maguri
Tuning: Standard

George Harrison 
Dark Sweet Lady (1978)
(George Harrison)

From: "George Harrison"

---------------------------------------------------------------------------

INTRO / VERSE
  1 + 2 + 3 + 4 +
e|----------------|
B|----------------|
G|----------------|
D|----------0-2-3-|
A|----0-2-4-------|
E|----------------|
  D                F#7(#5)          C7/9
  1 + 2 + 3 + 4 +  1 + 2 + 3 + 4 +  1 + 2 + 3 + 4 +  1 + 2 + 3 + 4 +
e|----2-2---2-----|0---0-0---0-----|------3---3---3-|----------------|
B|----3-3---3-----|3---3-3---3-----|------3---3---3-|----------------|
G|----2-2---2-----|3---3-3---3-----|------3---3---3-|----------------|
D|4---------------|4---------------|2---2-----------|2----(0)-(0)----|
A|----------------|----------------|3---3-----------|3--/5---3---1---|
E|----------------|----------------|----------------|----------------|
  A                A6               D
  1 + 2 + 3 + 4 +  1 + 2 + 3 + 4 +  1 + 2 + 3 + 4 +  1 + 2 + 3 + 4 +
e|----0-0---0-----|2---2-2---2-----|0---------------|----------------|
B|----2-2---2-----|2---2-2---2-----|3-3-------------|----------------|
G|----2-2---2-----|2---2-2---2-----|2-----2-------2-|2---------0-----|
D|2---------------|2---------------|0-----0-------0-|0---0-2-4---2-4-|
A|0---------------|0---------------|----------------|----------------|
E|----------------|----------------|----------------|----------------|
  D                F#7(#5)          C7/9
  1 + 2 + 3 + 4 +  1 + 2 + 3 + 4 +  1 + 2 + 3 + 4 +  1 + 2 + 3 + 4 +
e|----------2-----|0---0-0---------|------3---3---3-|----------------|
B|----3-3---3-----|3---3-3---3-----|------3---3---3-|----------------|
G|----2-2---2-----|3---3-3---3-----|------3---3---3-|----------------|
D|0---------------|4---------------|2---2-----------|2----(0)-(0)----|
A|----------------|----------------|3---3-----------|3--/5---3---1---|
E|----------------|----------------|----------------|----------------|
  A                A6               D
  1 + 2 + 3 + 4 +  1 + 2 + 3 + 4 +  1 + 2 + 3 + 4 +  1 + 2 + 3 + 4 +
e|----------------|2---2-2---------|0-----2-------2-|----------------|
B|----2-2---------|2---2-2---2-----|3-3---3-------3-|----------------|
G|----2-2---2-----|2---2-2---2-----|2-----2-------2-|2---------------|
D|2---------------|2---------------|0-----0-------0-|0---------0-2-3-|(4)
A|0---------------|0---------------|----------------|----0-2-4-------|
E|----------------|----------------|----------------|----------------|
                                                        [harp]
OUTRO
 D [break] 
  1 + 2 + 3 + 4 +  1
e|------0-2-3-0-2-|--
B|----3-----------|3-
G(2)----0-2-4-0-2-|--
D(0)--4-----------|4-
A|----------------|--
E|----------------|--

---------------------------------------------------------------------------
CHORDS

          E-A-D-G-B-e
F#7(#5)   x-x-4-3-3-0
C7/9      x-3-2-3-3-3
D/C#      x-4-x-2-3(2)

---------------------------------------------------------------------------
INTRO
| D | F#7(#5) | C7/9 | % |
| A | A6 | D | % |
| D | F#7(#5) | C7/9 | % |
| A | A6 | D | % |

D  F#7(#5)    C7/9
My dark sweet lady
A      A6     D
   You really got to me
D   F#7(#5) C7/9
You gave me everything
A       A6     D         D D/C#
   I've really fallen

Bm            F#        Bm
 You came and helped me through
C7/9          D      D D/C#
 When I'd let go
Bm             F#      Bm
 You came from out the blue
C7/9                       A    A6      A [break]
 Never have known what I'd done without you-ou

D  F#7(#5)    C7/9
My dark sweet lady
A       A6       D
   Your heart so close to mine
D  F#7(#5)    C7/9
You shine so heavenly    and
A    A6       D 
   I love you dearly

SOLO
| D | F#7(#5) | C7/9 | % |
| A | A6 | D | % |
| D | F#7(#5) | C7/9 | % |
| A | A6 | D | D D/C# |

Bm            F#        Bm
 You came and helped me through
C7/9          D      D D/C#
 When I'd let go
Bm             F#      Bm
 You came from out the blue
C7/9                       A    A6      A [break]
 Never have known what I'd done without you-ou

D  F#7(#5)    C7/9
My dark sweet lady
A       A6       D
   Your heart so close to mine
D  F#7(#5)    C7/9
You shine so heavenly  
    A A6       C7/9 
And I love you dearly
A     A6         C7/9 
   My dark sweet lady

CODA
| A | A6 | F#7(#5) | % | % | D
                            [OUTRO  see above]
Tap to rate this tab
# A B C D E F G H I J K L M N O P Q R S T U V W X Y Z