Song name
# A B C D E F G H I J K L M N O P Q R S T U V W X Y Z

George Harrison - Wake Up My Love tab

-----------------------------------------------------------------
 George Harrison - Wake Up My Love(Guitar Version) - Gone Troppo
-----------------------------------------------------------------
-INTRO RIFF-
E|---777|5--3-5|---777|5--7-3|---777|
B|---888|7--5-7|---888|7--8-5|---888|
G|------|------|------|------|------|
D|------|------|------|------|------|
A|------|------|------|------|------|
E|------|------|------|------|------|
-RIFF 1-
E|----------|---------|---------|-------------|
B|----------|---------|---------|-------------|
G|----------|---------|---------|-------------|
D|----------|---7-----|-------5~|(5)4-2-------|
A|-----5-7/9|9~~~-5-5-|-----5---|-------5-3---|
E|-5-7------|---------|-5-7-----|-------------|
-RIFF 2-
E|----------|-10------|----------|---------------|
B|-----7-/10|-10-7-7--|-----7--12|(12)10---------|
G|-----7-/11|----7-7--|-----7--12|(12)11-9-7-----|
D|-7-9------|---------|-7-7------|-----------10--|
A|----------|---------|----------|---------------|
E|----------|---------|----------|---------------|
-RIFF 3- 'Play twice'
E|----------|---------|---------|------------|
B|----------|---------|---------|------------|
G|----------|---------|---------|------------|
D|----------|---7-----|-------5~|~4-2--------|
A|-----5-7/9|~~~~-5-5-|-----5---|-----5-3-(2)|
E|-5-7------|---------|-5-7-----|------------|
-RIFF 4-
E|-------|-------|-------|-------|
B|-------|-------|-------|-------|
G|-------|-------|-------|-------|
D|----2--|0-2-4-0|5------|-----5-|
A|0-3---3|-------|--5-2--|--5----|
E|-------|-------|------5|3------|
-RIFF 5-
E|-------|-------|-------|-------|-------|-------|-------|-------|
B|-------|-------|-------|-------|-------|-------|-------|-------|
G|-------|-------|-------|-------|-------|------2|-------|-------|
D|----2--|0-2-4-0|5------|-------|----2--|0-2-4--|5------|-----5-|
A|0-3---3|-------|--5-2--|------2|0-3---3|-------|--5-2--|--5----|
E|-------|-------|------5|3-2-3--|-------|-------|------5|3------|
-GUITAR SOLO-
E|--8-8-8-10-8-|-8-10-10-12-10-|-10-10-10--8--8--8-|-7--7\|
B|--8-8-8-10-8-|-8-10-10-12-10-|-12-12-12--10-10-10|-8--8\|
G|-------------|---------------|-------------------|------|
D|-------------|---------------|-------------------|------|
A|-------------|---------------|-------------------|------|
E|-------------|---------------|-------------------|------|
-CHORUS/FADE RIFF-
E|---------|--------------|----|----|-------|------10---|
B|/17\-13~~|/13\-10~~13/15|15~~|----|-------|---------10|
G|---------|--------------|----|----|/5\-2~~|-----------|
D|---------|--------------|----|----|-------|5\2~~/7----|
A|---------|--------------|----|----|-------|-----------|
E|---------|--------------|----|----|-------|-----------|

E|---------------|-------|-------|--------|----------------------|------|
B|(10)~~~~8/15\12|(12)~~~|-------|--------|----------------10/15\|12~~~~|
G|---------------|-------|-------|--------|15--------------------|------|
D|(7)~~~~~-------|-------|/5\2~~/|5~~9/12\|11/12\11~\7-4/5-------|------|
A|---------------|-------|-------|--------|----------------------|------|
E|---------------|-------|-------|--------|----------------------|------|

How to play....

-INTRO RIFF-
-RIFF 1-
-RIFF 2-
-RIFF 3-'VERSE 1'
-RIFF 4-'CHORUS 1'
-RIFF 3-'VERSE 2'
-RIFF 4-'CHORUS 2'
-RIFF 3-'VERSE 3'
-RIFF 5-'CHORUS 3'
-GUITAR SOLO-
-RIFF 3-'VERSE 4'
-RIFF 4-'CHORUS 4'
-RIFF 1(x3)-'VERSE 5'
-CHORUS/FADE RIFF-
Tap to rate this tab
 
# A B C D E F G H I J K L M N O P Q R S T U V W X Y Z