Song name
# A B C D E F G H I J K L M N O P Q R S T U V W X Y Z

George Lynch - Cry Of The Brave tab

Help us improve GuitareTab! Take a short survey!
Tuning: Standard
Album: Sacred Groove
Submitted to/when: ultimate-guitar.com/4/16/05

You can only find this song on this web site!

                                     v    ^     v
---9~~~~~~-11--8h9p8h9p8h9--------------------------------|
----------------------------------------9-7---------------|repeat 2x
----------------------------8----8-8-9---------8---------.|
---------------------------------------------9----11~~~~-.|
----------------------------------------------------------|
----------------------------------------------------------|

---------------------------------|
------3--2-----------------------|repeat 2x
------------2--0-------0--------.|
--------------------------------.|
--0---------------3h4------------|
---------------------------------|

------------------------|
-----------------3~~~~--|
-----------0-----2~~~~--|
--2---------------------|
--0--3h4----------------|
------------------------|

Notation used:
h-hammer on
~-vibrato
p-pull off
V-(wah pedal down)
^-(wah pedal up)

I know this is not a lot, but it is the only bit that i could tab out
Related for Cry Of The Brave tab