Song name
# A B C D E F G H I J K L M N O P Q R S T U V W X Y Z

George M Cohan - Over There tab


e|----3--3-----------------3--0------------0--------0---2---2223250----------|
B|----0--------------------3----3--0--3/5--5---5\3--0---3---3333330----------|
G|----0--------------------0-------------------5\3--0---2---2222220----------|
D|----0-----------------2--2-------------------------------------------------|
A|----2------0h2-0---0--2--2-------------------------------------------------|
E|-3--3-----3------3----0--0-------------------------------------------------|

e|-0-------------------3------------------------------------------------------|
B|-1-------------------0------------------------------------------------------|
G|-0----0--0h2-0-------0------------------------------------------------------|
D|-2---2-2------2-0----0------------------------------------------------------|
A|-3--3----------------2------------------------------------------------------|
E|-0----------------3--3------------------------------------------------------|


| /  slide up
| \  slide down
| h  hammer-on
Tap to rate this tab
 
# A B C D E F G H I J K L M N O P Q R S T U V W X Y Z