Song name
# A B C D E F G H I J K L M N O P Q R S T U V W X Y Z

George Michael - Careless Whisper tab

E------------------------------------------------------|
B--17-15--------17-15--------13-11-------13-11---------|
G--------14-----------14-----------10----------10------|
D-----------15-----------15-----------12----------12---|
A------------------------------------------------------|
E------------------------------------------------------|

E------------------------------------------------------|
B--11-10-----------------------8-10--------------------|
G--------10-7-----------7-9-10-------------------------|
D-------------8--7-8-10--------------------------------|
A------------------------------------------------------|
E------------------------------------------------------|

Epiiiiiic manetzulle
Tap to rate this tab
# A B C D E F G H I J K L M N O P Q R S T U V W X Y Z