Song name
# A B C D E F G H I J K L M N O P Q R S T U V W X Y Z

George Michael - Sexy Sax Man tab

(E A D G B E) - 'Sexy Sax Man'   (Careless Whisper - George Michael)
http://www.youtube.com/watch?v=GaoLU6zKaws
 

|-12-10-------12-10----------------------------------|
|-------10----------10------13-11-------13-11--------|
|----------10----------10---------10----------10-----|
|------------------------------------12----------12--|
|----------------------------------------------------|
|----------------------------------------------------|


|---------------------|----------------------|
|-11-10---------------|----------------------|
|-------10------------|----------------------|
|----------10-8-8-7-8-|-10-12-14-15-17-19----|
|---------------------|----------------------|
|---------------------|----------------------|
Tap to rate this tab
 
# A B C D E F G H I J K L M N O P Q R S T U V W X Y Z