Song name
# A B C D E F G H I J K L M N O P Q R S T U V W X Y Z

George Michael - I Cant Make You Love Me tab

-------------------------------------------------------------------------------
			     SONG NAME - I cant make you love me
-------------------------------------------------------------------------------
Tabbed by:Firth of Fith
Email:

Tuning:standard
      Turn down the lights.........
e|----9---7----------------------------------------------5---7----7------------|
B|-------------9----7------7h8--7---9---7<-5----5---7-----------------7<--5----|
G|-----------------------------------------------------------------------------|
D|-----------------------------------------------------------------------------|
A|-----------------------------------------------------------------------------|
E|-----------------------------------------------------------------------------|
          Lay down with me.........
e|-----------------------------------------------------------------------------|
B|-----------------------------------------------------------------------------|
G|--------9--7------------------------------------5---7---7--------------------|
D|--7h9----------9--7---7h8--7--9--7<-5---5---7--------------7>--9-------------|
A|-----------------------------------------------------------------------------|
E|-----------------------------------------------------------------------------|

Its pretty self explanitory, play once as the intro then again with the lyrics as 
shown.This is tabbed in standard tuning,

i have seen versions of the song which says capo the third fret but it never really 
sounds right but give this a try and

see what you think, the < > means slide up or down.
Tap to rate this tab
 
# A B C D E F G H I J K L M N O P Q R S T U V W X Y Z