Song name
# A B C D E F G H I J K L M N O P Q R S T U V W X Y Z

George Michael - Careless Whisper tab

Song: Careless Whisper
Artist: George Michael
Ear Tabber: Elvin Hayes Gentiles

Intro:
e|--/11-10-------12-10-----------/7-6-----8-6-----|
B|---------10----------10-------------6-------6~--|
G|------------10----------10~-----------7---------|
D|------------------------------------------------|
A|------------------------------------------------|
E|------------------------------------------------|
(continued)
e|--6-5----------------------------------|
B|------6--------------------------8-10--|
G|--------7----------------7-9--10-------|
D|----------8~~----7-8--10---------------|
A|---------------------------------------|
E|---------------------------------------|
(continued)
e|--/11-10-------12-10-----------/7-6-----8-6-----|
B|---------10----------10-------------6-------6~--|
G|------------10----------10~-----------7---------|
D|------------------------------------------------|
A|------------------------------------------------|
E|------------------------------------------------|
(continued)
e|--6-5--------------------------------------|
B|------6--------------------------8-10------|
G|--------7----------------7-9--10-----------|
D|----------8~~----7-8--10--------------12~--|
A|-------------------------------------------|
E|-------------------------------------------|
Tap to rate this tab
# A B C D E F G H I J K L M N O P Q R S T U V W X Y Z