Song name
# A B C D E F G H I J K L M N O P Q R S T U V W X Y Z

George Michael - Faith tab

This is a tab from the video posted on YouTube: 
http://www.youtube.com/watch?v=VYfxZkTBlRQ (by user sosonguitar). Of which I am 
NOT responsible for. I simply tabbed the guitar. 
Sounds cool on acoustic!


E|---------------------------------------------------------------------------|
B|-----------------7-----7-----7-----7--7h9r7------------7-----7-----7-----7-|
G|--6b8b6--4--5/8-----8-----8-----8------------8----5/8-----8-----8-----8----|
D|---------------------------------------------------------------------------|
A|---------------------------------------------------------------------------|
E|---------------------------------------------------------------------------|


E|------------15--13--12\------------------0-----0-----0---------------------|
B|------------16--14--12\----------------------3-----3-----------------------|
G|---------------------------------------------------------------------------|
D|------4h6r4----------------------------------------------------------------|
A|-4h6--------------------------2-------------------------2-x-2-x-2-x-x-2-2--|
E|------------------------2--4-----4--2--0-----------------------------------|


E|--------------------------------------------------|
B|------------7-----7-----7--7h9r7-----9r7----------|
G|--4h6--5/8-----8-----8------------8---------------|
D|--------------------------------------------------|
A|--------------------------------------------------|
E|--------------------------------------------------|


E|---------14---------14---------14---------14-------------------|
B|--14b16------14b16------14b16------14b16------14b16b14r12------|
G|-----------------------------------------------------------13--|
D|---------------------------------------------------------------|
A|---------------------------------------------------------------|
E|---------------------------------------------------------------|


E|-----0-----0-----0---------------------------------------|
B|--------3-----3------------------------------------------|
G|---------------------------------------------------------|
D|---------------------------------------------------------|
A|--------------------1h2--2--1h2--2--1h2--2--1h2--2--1h2--|
E|--0------------------------------------------------------|
Tap to rate this tab
# A B C D E F G H I J K L M N O P Q R S T U V W X Y Z