Song name
# A B C D E F G H I J K L M N O P Q R S T U V W X Y Z

George Nozuka - Hurting Child tab

-------------------------------------------------------------------------------
			     HURTING CHILD - George Nozuka
-------------------------------------------------------------------------------
Tabbed By: Godinguy(Alext_Canada)
Email: alext_canada@hotmail.com

Tuning: Album Version: Standard Tuning EADGBe
        Acoustic Version: Relative Capo 1st Fret


Intro:

e|-8-----7-----5-----5-----5--2-2/3---2-2/3---|x2
B|---8-----0-----0-----0----------------------|
G|--------------------------------------------|
D|-7---7-5---5-4---4-----4----0-0h2---0-0h2---|
A|--------------------------------------------|
E|----------------------------------0-------0-|




e|--3----2--------------------------|x4
B|----0-----3----5--1----3----------|
G|------------0-------0-----0----2--|
D|--2----0--------------------0-----|
A|----------2----3--0----2----------|
E|--------------------------0----2--|

e|--8----7-5--2----3------------------|x2
B|----8---------0-----3----5--1-------|
G|----------------------0-------0--2--|
D|--7----5-4--0----2------------------|
A|--------------------2----3--0-------|
E|---------------------------------2--|

e|--3----2--------------------------|x4
B|----0-----3----5--1----3----------|
G|------------0-------0-----0----2--|
D|--2----0--------------------0-----|
A|----------2----3--0----2----------|
E|--------------------------0----2--|

e|--8----7-5--2----3------------------|x2
B|----8---------0-----3----5--1-------|
G|----------------------0-------0--2--|
D|--7----5-4--0----2------------------|
A|--------------------2----3--0-------|
E|---------------------------------2--|

e|--3----2--------------------------|x3
B|----0-----3----5--1----3----------|
G|------------0-------0-----0----2--|
D|--2----0--------------------0-----|
A|----------2----3--0----2----------|
E|--------------------------0----2--|

e|--8----7-5--2----3------------------|x2
B|----8---------0-----3----5--1-------|
G|----------------------0-------0--2--|
D|--7----5-4--0----2------------------|
A|--------------------2----3--0-------|
E|---------------------------------2--|

e|--3----2--------------------------|x2
B|----0-----3----5--1----3----------|
G|------------0-------0-----0----2--|
D|--2----0--------------------0-----|
A|----------2----3--0----2----------|
E|--------------------------0----2--|

e|--3----2--------------------------|x1
B|----0-----3----5--1----3--1-------|
G|------------0-------0----------2--|
D|--2----0--------------------------|
A|----------2----3--0----2--0-------|
E|-------------------------------2--|



| /  slide up
| \  slide down
| h  hammer-on
| p  pull-off
| ~  vibrato
| +  harmonic
| x  Mute note
===============================================================================
George Nozukas Official Site http://www.georgeexclusive.com
Tap to rate this tab
 
# A B C D E F G H I J K L M N O P Q R S T U V W X Y Z