Song name
# A B C D E F G H I J K L M N O P Q R S T U V W X Y Z

George Straight - The Breath You Take tab

-------------------------------------------------------------------------------
			     SONG NAME - Band Name
-------------------------------------------------------------------------------
Tabbed by:  Chandler Whalen
Email:  crwrosilie@gmail.com

This tab is not yet complete so whoever this may concern  it will be done soon thank you (:

Tuning:  EADGBe
        Bm                                       G
e|-----------------2---------------------------------2-----------------------------|
B|----------3---------3-----3---------------2--------------------------------------|
G|-------------4---------4----------------------0----------------------------------|
D|------4--------------------------------------------------------------------------|
A|---2------------------------------------2----------------------------------------|
E|-------------------------------------3-------------------------------------------|

    Bm                                           A
e|-----------------2--------------------------------0------------------------------|
B|----------3---------3-----3--------------2---------------------------------------|
G|-------------4---------4---------------------2-----------------------------------|
D|------4--------------------------------2-----------------------------------------|
A|---2--------------------------------0--------------------------------------------|
E|---------------------------------------------------------------------------------|

Verse 1:

       Bm                                                      Gmaj
       V  V   U  U  V  U  V  V  U  U  V  U   V  V   U  U  V  U  V  V  U  U   V  U
e|---2--2--2--2--2--2--2--2--2--2--2--2--2--2--2--2--2--2--2--2--2--2--2--2-----|
B|---3--3--3--3--3--4--4--4--4--4--4--4--2--2--2--2--2--2--2--2--2--2--2--2-----|
G|---4--4--4--4--4--4--4--4--4--4--4--4--0--0--0--0--0--0--0--0--0--0--0--0-----|   X2
D|---4--4--4--4--4--4--4--4--4--4--4--4--0--0--0--0--0--0--0--0--0--0--0--0-----|
A|---2--2--2--2--2--2--2--2--2--2--2--2--2--2--2--2--2--2--2--2--2--2--2--2-----|
E|----x--x--x--x--x--x--x---x--x--x---x--x--3--3--3--3--3--3--3--3--3--3--3--3--|

      Em                                                      F#M
       V  V  U  U  V   U  V  V  U  U  V   U  V  V  U  U  V  U  V   V  U  U  V  U
e|---0--0--0--0--0--0--0--0--0--0--0--0--2--2--2--2--2--2--2--2--2--2--2--2-----|
B|---0--0--0--0--0--0--0--0--0--0--0--0--2--2--2--2--2--2--2--2--2--2--2--2-----|
G|---0--0--0--0--0--0--0--0--0--0--0--0--2--2--2--2--2--2--2--2--2--2--2--2-----|
D|---2--2--2--2--2--2--2--2--2--2--2--2--4--4--4--4--4--4--4--4--4--4--4--4-----|
A|---2--2--2--2--2--2--2--2--2--2--2--2--4--4--4--4--4--4--4--4--4--4--4--4-----|
E|---x--x--x---x--x--x---x--x--x--x--x---x--2--2--2--2--2--2--2--2--2--2--2--2--|

       Gmaj                                                  A
       V  V  U  U  V   U  V  V  U  U  V   U  V  V   U  U  V  U  V  V  U  U  V  U
e|---2--2--2--2--2--2--2--2--2--2--2--2--0--0--0--0--0--0--0--0--0--0--0--0-----|
B|---2--2--2--2--2--2--2--2--2--2--2--2--2--2--2--2--2--2--2--2--2--2--2--2-----|
G|---0--0--0--0--0--0--0--0--0--0--0--0--2--2--2--2--2--2--2--2--2--2--2--2-----|
D|---0--0--0--0--0--0--0--0--0--0--0--0--2--2--2--2--2--2--2--2--2--2--2--2-----|
A|---2--2--2--2--2--2--2--2--2--2--2--2--0--0--0--0--0--0--0--0--0--0--2--2-----|
E|---3--3--3--3--3--3--3--3--3--3--3--3--x--x--x--x---x--x--x---x--x--x--x---x--|

Chorus:

       D                                                       Em
       V  V   U  U  V  U  V  V  U  U  V   U  V  V  U  U  V  U  V   V  U  U  V   U
e|---2--2--2--2--2--2--2--2--2--2--2--2--0--0--0--0--0--0--0--0--0--0--0--0-------|
B|---3--3--3--3--3--3--3--3--3--3--3--3--0--0--0--0--0--0--0--0--0--0--0--0-------|
G|---2--2--2--2--2--2--2--2--2--2--2--2--0--0--0--0--0--0--0--0--0--0--0--0-------|
D|---0--0--0--0--0--0--0--0--0--0--0--0--2--2--2--2--2--2--2--2--2--2--2--2-------|
A|---0--0--0--0--0--0--0--0--0--0--0--0--2--2--2--2--2--2--2--2--2--2--2--2-------|
E|---x--x--x--x--x---x--x---x--x--x--x--x--x--x---x--x---x--x--x--x---x--x--x--x--|

       Bm                                                     A
       V  V  U  U  V  U  V  V   U   U  V  U  V  V   U  U  V  U  V  V  U  U   V  U
e|---2--2--2--2--2--2--2--2--2--2--2--2--0--0--0--0--0--0--0--0--0--0--0--0-------|
B|---3--3--3--3--3--3--3--3--3--3--3--3--2--2--2--2--2--2--2--2--2--2--2--2-------|
G|---4--4--4--4--4--4--4--4--4--4--4--4--2--2--2--2--2--2--2--2--2--2--2--2-------|
D|---4--4--4--4--4--4--4--4--4--4--4--4--2--2--2--2--2--2--2--2--2--2--2--2-------|
A|---2--2--2--2--2--2--2--2--2--2--2--2--0--0--0--0--0--0--0--0--0--0--0--0-------|
E|--x--x--x--x--x--x--x--x--x--x--x--x--x---x--x--x--x--x---x--x--x--x---x--x--x--|

      Gmaj                                                  Em
       V  V  U  U  V   U  V  V  U  U  V  U  V   V  U  U  V   U  V  V   U  U  V  U
e|---2--2--2--2--2--2--2--2--2--2--2--2--0--0--0--0--0--0--0--0--0--0--0--0----|
B|---2--2--2--2--2--2--2--2--2--2--2--2--0--0--0--0--0--0--0--0--0--0--0--0----|
G|---0--0--0--0--0--0--0--0--0--0--0--0--0--0--0--0--0--0--0--0--0--0--0--0----|
D|---0--0--0--0--0--0--0--0--0--0--0--0--2--2--2--2--2--2--2--2--2--2--2--2----|
A|---2--2--2--2--2--2--2--2--2--2--2--2--2--2--2--2--2--2--2--2--2--2--2--2----|
E|---3--3--3--3--3--3--3--3--3--3--3--3--x--x--x--x---x--x--x--x--x---x--x--x--|

       A                         Asus4     A             D
       V  V  U  U  V  U  V   V  U   V  V  U   V  V   U  U  V  U  V  V  U  U   V  U
  e|--0--0--0--0--0--0--0--0--0--0--0--0--0--0--0--0--0--0--0--0--0--0--0--0-------|
B|---2--2--2--2--2--2--3--3--3--2--2--2--2--2--2--2--2--2--2--2--2--2--2--2--------|
G|---2--2--2--2--2--2--2--2--2--2--2--2--3--3--3--3--3--3--3--3--3--3--3--3--------|
D|---2--2--2--2--2--2--2--2--2--2--2--2--2--2--2--2--2--2--2--2--2--2--2--2--------|
A|---0--0--0--0--0--0--0--0--0--0--0--0--0--0--0--0--0--0--0--0--0--0--0--0--------|
E|---x--x--x--x---x--x--x--x---x--x--x--x---x--x--x--x---x--x--x---x--x--x--x---x--|

      Em
       V  V  U  U  V   U  V  V  U  U  V   U
e|---0--0--0--0--0--0--0--0--0--0--0--0-----|
B|---0--0--0--0--0--0--0--0--0--0--0--0-----|
G|---0--0--0--0--0--0--0--0--0--0--0--0-----|
D|---2--2--2--2--2--2--2--2--2--2--2--2-----|
A|---2--2--2--2--2--2--2--2--2--2--2--2-----|
E|-x-x--x--x--x--x--x--x--x--x--x--x--x--x--|




************************************

| /   slide up
| \   slide down
| h   hammer-on
| p   pull-off
| ~   vibrato
| +   harmonic
| x   Mute note
| b   Bend
| pb  Pre-bend
| br  Bend release
| pbr Pre-bend release
| brb Bend release bend
************************************
Tap to rate this tab
 
# A B C D E F G H I J K L M N O P Q R S T U V W X Y Z