Song name
# A B C D E F G H I J K L M N O P Q R S T U V W X Y Z

George Strait - Thats My Kind Of Woman tab

Artist: George Strait
Song: That's My Kind of Woman
Album: It Just Comes Natural

Capo: None

Intro::

     Quarter One: Directly Below       Quarter Two: Directly Below
e(1)---|--0h2p0---------------0-----|--0h2p0------------------------|
b(2)--3|---------3------3---2-----3-|---------3------3----2----3----|
G(3)--2|--------------2-----------2-|--------------2-----------2----|
D(4)--0|--------------------------0-|--------------------------0----|
A(5)---|----------------------------|-------------------------------|
E(6)---|----------------------------|-------------------------------|

    Quarter Three: Directly Below     Quarter Four: Directly Below
e(1)---|--0h2p0---------------0-----|--0h2p0------------------------|
b(2)---|---------3----------2-----3-|---------3------3----2----3----|
G(3)---|--------------2-----------2-|--------------2-----------2----|
D(4)---|--------------------------0-|--------------------------0----|
A(5)---|----------------------------|-------------------------------|
E(6)---|----------------------------|-------------------------------|

In the verse, at the end of the 3rd, 4th, and 5th lines, play this Little Deal:

e(1)----------0------|
b(2)-------------3---|
G(3)-------2---------|
D(4)---0-------------|
A(5)-----------------|
E(6)-----------------|

Verse I:

D                         Bm7         Quarter One
She can drive a truck and rope and ride
D                        Bm7           Quarter Two
She feels right at home right by my side
G         D/F     D     Little Deal
That's my kind of woman
G         D/F    D   Little Deal
That's my cup of tea
G         D/F     D     Little Deal
That's my kind of woman
    G      A        D
The girl I want for me


Quarters One and Two


In this verse, play the Little Deal like before, but after the 4th line (The "T"),
instead of a 0 on the e(1) string, play a 5. We'll call it Alt. Little Deal.

Verse II:

D                         Bm7               Quarter One
She's got a pair of boots that she just loves
D                      Bm7              Quarter Three
And like me, likes Gus From Lonesome Dove
G         D/F     D     Little Deal
That's my kind of woman
G         D/F   D  Alt. Little Deal.
That's me to a "T"
G         D/F     D     Little Deal
That's my kind of woman
    G     A        D
The one I want for me


Quarter One, then directly into Chorus.


For the second little deal here, play it like the original, but instead of a 3 on the b(2)
string, play a 2 on the e(1) string. This will be Alt. 2 Little Deal.


Chorus:

G                       A        D
After all I've seen and all I've done
  G                    A        D
I know somewhere there is someone
       G
Who'll look my way and say
        Bm
I want that one
G         D/F     D     Alt. 2 Little Deal
That's my kind of woman
G      A        D
That's me to a "T"


Quarters One and Two


Verse III:

D                        Bm               Quarter One
No matter what she wears she turns my head
D                          Bm            Quarter Two
On rainy days, I can't pry her out of bed
G                D              D   Quarter One
Lord, I know the order's pretty tall
(Tab the 023 from Quarters)            Quarter One
         But find me and that'll be all

G         D/F     D    Little Deal
That's my kind of woman
G         D/F   D  Alt. Little Deal
That's me to a "T"
G         D/F     D    Little Deal
That's my kind of woman
G          A        D
The girl I want for me


Quarter One into Chorus


Repeat Chorus


G         D/F     D    Alt. 2 Little Deal
That's my kind of woman
    G      A        D
The girl I want for me


Quarters One and Two

D                         Bm7
She can drive a truck and rope and ride


Quarter One twice to end the song.


**Listen to the song for rhythms. They are easy once
  you hear them.
***I know this one is kinda confusing, but just give
 'er a once over, and try it. It sounds great when you get it!
  Good luck!
Tap to rate this tab
 
# A B C D E F G H I J K L M N O P Q R S T U V W X Y Z