Song name
# A B C D E F G H I J K L M N O P Q R S T U V W X Y Z

George Strait - Give It All We Got Tonight tab

-------------------------------------------------------------------------------
                Give It All We Got Tonight - George Strait
-------------------------------------------------------------------------------

There are other tabs out there, but none with the right intro, so I took
it upon myself. Also, definetly no capo on the CD version.

Tabbed by: Chris

Tuning: Standard


Intro: 
        D   D  D U D              D    D  D U D              D   D  D U D
e|--------------------------------------------------------------------------|
B|------3---3--3-3-3---------3----3----3--3-3-3--------------1---1--1-1-1---|
G|------0---0--0-0-0-----0h2-2h4--0h2--2--2-2-2--2h4-2p0-2---0---0--0-0-0---|
D|--0h2-0---0--0-0-0--0h2---------0----0--0-0-0--------------0h2-2--2-2-2---|
A|--------------------------------------------------------------------------|
E|--------------------------------------------------------------------------|

                                D   D D  D   D D           July.......
e|---------------------------------------------------------3----------------|
B|--1/3--3\1--1------------1----1/3-3-3--1/3-3-3---1-1-----3----------------|
G|--2/4--4\2--0--------0---0----2/4-4-4--2/4-4-4---2-0-----0----------------|  
D|---------------2-----0h2---------------------------------0----------------|  
A|---------------------------------------------------------2----------------|  
E|---------------------------------------------------------3----------------|


G                 D
July moonlight shines
                              Am
Your pretty little head on my shoulder
     C
Pull over on the side of the road
G                    D
Oh my God, you're something
     Am
Like nothing I've ever seen
   C
If I'm asleep girl, let me dream

 
G                 D
Baby fall into my kiss
                           Am
It should just happen like this
            C                                 G
Trust it so much that there's no one else but us and
                              D
This moment that says it's so right
                                  Am
'Cause that's all we have in this life
C                                            G        D   Am  C 
Drink up this love, baby, give it all we got tonight



I play this riff over the last bar of C before the 2nd verse. Sounds pretty good and
breaks up the strumming, especially if playing solo. Or just play G D Am C.


    C for 1 bar, then:                                     Summer....
e|-------------------------------------------------------|-3---------|
B|--1---1---------------------1/3-3-3----1/3-3-3---1-1---|-3---------|
G|--0---0---------------------2/4-4-4----2/4-4-4---2-0---|-0---------|
D|--0h2-2------------------------------------------------|-0---------|
A|--3---3------------------------------------------------|-2---------|
E|-------------------------------------------------------|-3---------|

G              D
Summer honeysuckle
                              Am
Leaking through a rolled down window
   C
We both know when that seat lays back
G               D
Anything can happen
   Am
So imagine it'll never end
     C                                                               
Just close your eyes and you can see that we are where we're meant to be


G                 D
Baby fall into my kiss
                           Am
It should just happen like this
            C                                 G
Trust it so much that there's no one else but us and
                              D
This moment that says it's so right
                                  Am
'Cause that's all we have in this life
      C                                      G        D 
Baby, drink up this love, give it all we got tonight
                   Am         C
Give it all we got tonight


G                 D
Baby fall into my kiss
                           Am
It should just happen like this
            C                                 G
Trust it so much that there's no one else but us and
                              D
This moment that says it's so right
                                  Am
'Cause that's all we have in this life
C                                             G        D 
Drink up this love, c'mon, give it all we got tonight
                   Am         C
Give it all we got tonight


Outtro: G  D  Am  C
Tap to rate this tab
# A B C D E F G H I J K L M N O P Q R S T U V W X Y Z