Song name
# A B C D E F G H I J K L M N O P Q R S T U V W X Y Z

George Strait - The Breath You Take tab

E|--------------2------------------3--------------2-----------------------0--|
B|--------3--------3---------0--------------3--------3--------------2--------|
G|-----------4------4-----------0--------------4--------4--0-----------2-----|
D|-----4------------------0--------------4-----------------------2-----------|
A|--2---------------------------------2-----------------------0--------------|
E|---------------------3-----------------------------------------------------|

Verse

E|-----2-----3-----2-----3-----0-----2-----3-----0-----|
B|-----3-----0-----3-----0-----0-----2-----0-----2-----|
G|-----4-----0-----4-----0-----0-----2-----0-----2-----|
D|-----4-----0-----4-----0-----2-----4-----0-----2-----|
A|-----2-----2-----2-----2-----2-----4-----2-----0-----|
E|-----2-----3-----2-----3-----0-----2-----3-----0-----|

Chorus 1

E|-----2-----0-----2-----0-----3-----2-----0-----0-----0-----0-----|
B|-----3-----0-----3-----2-----0-----3-----0-----2-----3-----2-----|
G|-----2-----0-----4-----2-----0-----4-----0-----2-----2-----2-----|
D|-----0-----2-----4-----2-----0-----4-----2-----2-----2-----2-----|
A|-----------2-----2-----0-----2-----2-----2-----0-----0-----0-----|
E|-----------0-----2-----0-----3-----2-----0-----0-----0-----0-----|

Instrumental

E|-----2-----0-----0-----0-----0-----|
B|-----3-----0-----2-----3-----2-----|
G|-----3-----0-----2-----2-----2-----|
D|-----0-----2-----2-----2-----2-----|
A|-----------2-----0-----0-----0-----|
E|-----------0-----0-----0-----0-----|

Verse 2 same as verse one

Chorus 2

E|-----2-----0-----2-----0-----3-----2-----0-----0-----|
B|-----3-----0-----3-----2-----0-----3-----0-----2-----|
G|-----2-----0-----4-----2-----0-----4-----0-----2-----|
D|-----0-----2-----4-----2-----0-----4-----2-----2-----|
A|-----------2-----2-----0-----2-----2-----2-----0-----|
E|-----------0-----2-----0-----3-----2-----0-----0-----|

Bridge

E|-----3-----2-----0-----0-----0-----0-----|
B|-----0-----3-----0-----2-----3-----2-----|
G|-----0-----4-----0-----2-----2-----2-----|
D|-----0-----4-----2-----2-----2-----2-----|
A|-----2-----2-----2-----0-----0-----0-----|
E|-----3-----2-----0-----0-----0-----0-----|

Repeat Chorus 1

Outro

E|------------3-----------------------2-----------------------0-----------2--|
B|---------------0--------------3--------3--------------2--------2--------3--|
G|--------0------------0-----------4-----------0-----------2--------2--0--2--|
D|---------0--------0--------4--------------4--------2--------------------0--|
A|-----2------------------2-----------------------0--------------------------|
E|--3------------------------------------------------------------------------|
Tap to rate this tab
# A B C D E F G H I J K L M N O P Q R S T U V W X Y Z