Song name
# A B C D E F G H I J K L M N O P Q R S T U V W X Y Z

George Strait - Youll Be There tab

                               You'll be There
                               By:George Strait
Hammer-on  (H)

Please Rate and Comment


Tuning:EADGBE


E]---------------0---0----------------0---0----------------]
B]-------------0---4----0--0-------0----4---0--0-----------]
G]---------------------------------------------------------]
D]------2----2-------------------2-------------------------]
A]--2H4----------------------------------------------------]
E]---------0-------------------4---------------------------]


E]--------------0----------------0-------------------0---0---------]
B]---------2------2------------4--------4----------0---4---0--0----]
G]-----------4-----------------------------------------------------]
D]--------------------------4---------4---4------2-----------------]
A]-----2-------------0----2---------2------------------------------]
E]--0------------------------------------------0-------------------]


E]---------0---0----------------0---------------------------]
B]-------0---4---0-0------2-------2-------------------0-----]
G]--------------------------4-----------------4-------4-----]
D]-----2----------------2------------------4-----4----4-----]
A]--------------------0--------------0--2-------------2-----]
E]---4------------------------------------------------------]



PLEASE RATE AND COMMENT!!!!!
Thanks

This Is a great song but good luck playing it
Tap to rate this tab
 
# A B C D E F G H I J K L M N O P Q R S T U V W X Y Z