Song name
# A B C D E F G H I J K L M N O P Q R S T U V W X Y Z

George Thorogood - I Drink Alone tab

George Thorogood - I Drink Alone


   This is the acoustic version of the song, you can listen to it at
   http://www.youtube.com/watch?v=ZK1rAk5kC8Y

   Also I only did the rythym, I did not quite get the lead so yea
   sorry about that.

Standard Tuning


   For the verse, I did not do his finger picked method. All I did 
   was mute the down stroke and strum the upstroke. Sorry but I'm 
   no George Thorogood.

  Intro/Verse(This takes up the majority of the song)
e|----0---0--------------|
B|----0---0--------------|
G|----1---1--------------|
D|--x-2-x-2-x-2-0h2p0h2--|
A|--x-2-x-2-x------------|
E|--x---x---x------------|

 
  Fill
e|----0000000000---------|
B|----0000000000---------|
G|---/4444444444-2p1p0---|
D|---/5555555555---------|
A|-----------------------|
E|-----------------------|\
                           \
                            After each Fill And Chorus go straight back
  Chorus                   /  into the verse with no pause.
e|---00000000--22222222--|/
B|---11111111--33333333--|
G|---00000000--22222222--|
D|---22222222--00000000--|
A|---33333333------------|
E|---33333333------------|

 Its a very easy song for anyone who knows their way around a guitar
 I'm well aware its not perfect but, doesnt seem like very many people
 are willing to put something half way close to the song up.

 Any comments or suggestions are welcome.
Tap to rate this tab
 
# A B C D E F G H I J K L M N O P Q R S T U V W X Y Z