Song name
# A B C D E F G H I J K L M N O P Q R S T U V W X Y Z

George Thorogood - Killers Blues tab

George Thorogood
Killers Blues

Tableture Legend 
/-slide down
\/-slide up and down
h-hammer on
p-pull off

Tuning- Eb,Ab,Db,Gb,Bb,eb

|------------------------------------------|
|------------------------------------------|
|------------------------------------------|  Riff One
|------------------------------------------|
|---3---1-----------------3---1------------|
|----------3---------------------3---------|
                 trill
|-------------------------/\/\/\/\/\/\/----|
|-------------------------/\/\/\/\/\/\/----|
|-------------------------/\/\/\/\/\/\/----| Riff Two
|-------------------------/\/\/\/\/\/\/----|
|---3---1-----1h3p1h3p1h3-/\/\/\/\/\/\/----|
|----------3--------------/\/\/\/\/\/\/----|
                              play 2nd #
|--------------------------|--------------|
|--------------------------|-------3-3/---|
|--------------------2-----|------2-------| Riff Three
|-------------------2------|-----0--------|
|---3---1----------0-------|--------------|
|----------3---------------|--------------|

|---------------------------------------------|
|---------------------------------------------|
|-----------------Saxaphone-------------------| Solo
|-------------------Solo----------------------|
|---------------------------------------------|
|---------------------------------------------|

How To Play

Riff 1
Riff 2
Riff 1
Riff 2
Riff 3
Riff 1
Riff 2
Riff 1
Riff 2
Riff 3
Saxaphone Solo
Riff 1
Riff 2
Riff 1
Riff 2
Riff 3
(repeat, then fade out)
Tap to rate this tab
 
# A B C D E F G H I J K L M N O P Q R S T U V W X Y Z