Song name
# A B C D E F G H I J K L M N O P Q R S T U V W X Y Z

George - Im A Little Tea Pot The Teapot Song tab

-------------------------------------------------------------------------------
I'm a little Tea Pot (The Teapot Song) - George Harold Sanders and Clarence Z. Kelley
-------------------------------------------------------------------------------
Tabbed by: Matthew Sommerfeldt (MGS22)
E-mail: sommer77@hotmail.com

Tuning: Standard


e|-----------3-0-3----------------------------------------3-0-3-------------|
B|---------3-------3----1--1-1-0-0----------------------3-------3-----------|
G|-0-0-4-4--------------------------2--2-2-0----0-0-4-4---------------------|
D|--------------------------------------------------------------------------|
A|--------------------------------------------------------------------------|
E|--------------------------------------------------------------------------|

e|-3-0----------------------------------------------------------------------|
B|-----3-3-1-0--------------------------------------------------------------|
G|-------------2-0----------------------------------------------------------|
D|--------------------------------------------------------------------------|
A|--------------------------------------------------------------------------|
E|--------------------------------------------------------------------------|

Tap to rate this tab
# A B C D E F G H I J K L M N O P Q R S T U V W X Y Z