Song name
# A B C D E F G H I J K L M N O P Q R S T U V W X Y Z

Georges Bizet - Habanera tab

Song: Habanera
Play: Carmen
Tabbed by DoteStudios
Email: manbearpigisreal@gmail.com

I ran into this by accident. This is the song "Habanera" from the play Carmen. Email me 
leave messages in the comment box if you have any questions. Enjoy. This is the whole song.

E---------------------------|
B---------------------------|
G---------------------------|
D---------------------------|
A----15-14-12-----15-14-12--|
E-12-----------12-----------|

E---------------------------------------------------------------------|
B----16-15-14-14--14-13-----------------------------------------------|
G-13--------------------16-15--15-14-13-11-11--10-11-13-11-10---------|
D---------------------------------------------------------------------|
A---------------------------------------------------------------------|
E---------------------------------------------------------------------|

E---------------------------------------------------------------------|
B----16-15-14-14--14-13-----------------------------------------------|
G-13--------------------16-15--15-14-13-------------------------------|
D---------------------------------------15-15--13-15-16-15-13---------|
A---------------------------------------------------------------------|
E---------------------------------------------------------------------|

E---------------------------------------------------------------------|
B---------------------------------------------------------------------|
G----------12--15-12--------------------------------------------------|
D-13-13-15-----------15-13--------------------------------------------|
A---------------------------------------------------------------------|
E---------------------------------------------------------------------|
Tap to rate this tab
 
# A B C D E F G H I J K L M N O P Q R S T U V W X Y Z