Song name
# A B C D E F G H I J K L M N O P Q R S T U V W X Y Z

Georges Bizet - Toreador tab

----------------------------------------------------------------------
----------------------------------------------------------------------

|-7-9-7-4-4-|
|-----------|
|-----------|
|-----------|
|-----------|
|-----------|

|-4-2-4-5-4-|
|-----------|
|-----------|
|-----------|
|-----------|
|-----------|

|-5-2-7-4-0-|
|-----------|
|-----------|
|-----------|
|-----------|
|-----------|

|-----0-2---|
|------2-0--|
|-----------|
|-----------|
|-----------|
|-----------|



The rythym is tricky, but if you know the tune its easy.
Tabbed By: Diablomastabarb
diablo_masta_barbarian@hotmail.com
Tap to rate this tab
# A B C D E F G H I J K L M N O P Q R S T U V W X Y Z