Song name
# A B C D E F G H I J K L M N O P Q R S T U V W X Y Z

Georges Brassens - Lauvergnat tab

------------------------------------------------------------0-1-0--|
-----0-1------0-------0-----0-1-------0-1-------0-1---0-1-3--------|
-2-2-----2-1-2--1-1-2---1-2-------2-2-----2-1-2-----2--------------|
-------------------------------------------------------------------|
-------------------------------------------------------------------|
-------------------------------------------------------------------|


------------------------------------------------------------0-1-3--|
-----0-1------0-------0-----0-1-------0-1-------0-1---0-1-3--------|
-2-2-----2-1-2--1-1-2---1-2-------2-2-----2-1-2-----2--------------|
-------------------------------------------------------------------|
-------------------------------------------------------------------|
-------------------------------------------------------------------|

-0-1-3-5---0-1-3-----0-1----------0-------1---------0-5-5-5-5-3-1-0-|
---------3-------1-3--------0-1-3-----0-3---3-1---1-----------------|
------------------------------------1-----------2-------------------|
--------------------------------------------------------------------|
--------------------------------------------------------------------|
--------------------------------------------------------------------|

-------------------------------------------------------------------|
-----0-1-------0-------0----0-1-------0-1--3-3-1-0---1--0----------|
-2-2-----2-1-2---1-1-2--1-2-------2-2----------------------2-2-2---|
-------------------------------------------------------------------|
-------------------------------------------------------------------|
-------------------------------------------------------------------|
Tap to rate this tab
 
# A B C D E F G H I J K L M N O P Q R S T U V W X Y Z