Song name
# A B C D E F G H I J K L M N O P Q R S T U V W X Y Z

Georges Brassens - Le Roi tab

Song: Le roi
Artist: Georges Brassens
Album: Fernande (1972)



Intro

    Bm
e|----------------------|
b|-----3-------3--------|
g|-----4-------4--------|
d|-----4-------4--------|
a|--2-------------------|
e|----------2-----------|
                      x4


Verse                                        
                                                 
     Bm           F#m           Bm           F#m      Bm 
e|--------------|-------------|-------------|--------------||
b|-----3-----3--|----2-----2--|----3-----3--|----2-----3---||
g|.----4-----4--|----2-----2--|----4-----4--|----2-----4---||
d|.----4-----4--|----4-----4--|----4-----4--|----4-----4---||
a|--2-----------|-4-----------|-2-----------|-4-----2------||
e|--------2-----|-------2-----|-------2-----|--------------||
                                                         x2


Chorus
                            
   Em       A7       D       Bm        Em     F#7          
e|--------|--------|--------|---------|-------------|
b|----8---|----5---|----7---|----3----|-------------|
g|----9---|----6---|----7---|----4----|--1-----3----|
d|----9---|----5---|----7---|----4----|--2-----2----|
a|--7-----|--------|--5-----|--2------|--2-----4----|
e|--------|-5------|--------|---------|--0-----2----|



Post Chorus
    Bm
e|--------------------|
b|-----3-------3------|
g|-----4-------4------|
d|-----4-------4------|
a|--2-----------------|
e|----------2---------|
                    x2

Play Verse, Chorus and Postchorus 7 more times then end on Bm after the last Chorus and that's it!
Tap to rate this tab
 
# A B C D E F G H I J K L M N O P Q R S T U V W X Y Z