Song name
# A B C D E F G H I J K L M N O P Q R S T U V W X Y Z

Georges Brassens - Je Me Suis Fait Tout Petit tab

Note the capo on the 4th fret

h - Hammer On
p - Pull Off
s - Slide
* - Beat

  *        *               *      *         *      *         *
E|-------7-10--10s9p7p6--7-9--4-6----4--6-7h9--7------------------|
B|----7-----------------------------7----------------9s10--8-7----|
G|4--7------------------------------------------------------------|
D|-------------------------------------------------7--------------|
A|----------------------------------------------------------------|
E|----------------------------------------------------------------|

  *        *               *       *       *        *      *       *       *
E|-------7-10--10s9p7p6--7-9--4-6----------7--9s10--5-p4---------------------|
B|----7-----------------------------------7-------------7--------------------|
G|4--7-------------------------------4-7-------------------7--h8p7-6--h7p6-4-|
D|---------------------------------------------------------------------------|
A|---------------------------------------------------------------------------|
E|---------------------------------------------------------------------------|
Tap to rate this tab
# A B C D E F G H I J K L M N O P Q R S T U V W X Y Z