Song name
# A B C D E F G H I J K L M N O P Q R S T U V W X Y Z

Georgia Fair - Picture Frames tab

Hey this is my first tab, copied most the solo from version one and just changed one 
part because i think its pretty accurate but I changed the riff and chords a bit. Just 
wanted to fix version one found how to play the riff from watching the video clip and by ear.

READ!
When I previewed the tab in the solo between 7p5---5 this appeared and wont go away 
— if it appears just ignore it.

Shouldn't be very hard to play at all if you have basic picking skills, solo may look 
hard to some people but it should be mostly pretty simple, Good luck.

Song is in standard tuning with a capo on the second fret.

Intro
e---------------------|      e---------------------|---------------------|
B---------------------|      B---------------------|-------------------7-|
G---------------------|      G---------------4---6-|---------------4-----|
D-----------2---4---6-|      D---2---4---6---------|---2---4---6---------|
A---2---4-------------|      A-0---0---0---0---0---|-0---0---0---0---0---|
E-0---0---0---0---0---|  x2  E---------------------|---------------------|

Repeat X2

Repeat Intro Riff for Verse x2

Verse Chords

  E                     A
e--------0-0-0-|      |----0---0-0-0-|
B----0---0-0-0-|      |----2---2-2-2-|
G----1---1-1-1-|      |-2--2---2-2-2-|
D-2--2---2-2-2-|      |-2--2---2-2-2-|
A-2--2---2-2-2-|      |-0--0---------|
E-0--0---------|  x2  |--------------|  x2

Repeat x2

Chorus

e--------------|--------------|--------------|--------------|
B----5---5-5-5-|----5---5-5-5-|--------------|--------------|
G-6--6---6-6-6-|-6--6---6-6-6-|-4--4---4-4-4-|-4--4---4-4-4-|
D-6--6---6-6-6-|-6--6---6-6-6-|-4--4---4-4-4-|-4--4---4-4-4-|
A-4--4---4-4-4-|-4--4---4-4-4-|-2--2---2-2-2-|-2--2---2-2-2-|
E--------------|--------------|--------------|--------------|

|--------------|--------------|--------------|--------------|
|----0---0-0-0-|----0---0-0-0-|----0---0-0-0-|----0---0-0-0-|
|-2--2---2-2-2-|-2--2---2-2-2-|-2--2---2-2-2-|-2--2---2-2-2-|
|-2--2---2-2-2-|-2--2---2-2-2-|-2--2---2-2-2-|-2--2---2-2-2-|
|-0--0---0-0-0-|-0--0---0-0-0-|-0--0---0-0-0-|-0--0---0-0-0-|
|--------------|--------------|--------------|--------------|

Repeat x2


Repeat Verse

Repeat Chorus

Solo

e|------------------------------------------------------------------|
B|------------------------------------------------------------------|
G|-----------------------------------------4~------4~-------4-4-----|
D|--------4--4---4/6~-------4---4/6~---4h6-----4h6------4h6-----6~--|
A|---6h7----------------6h7-----------------------------------------|
E|------------------------------------------------------------------|

e|------------------------------------------------------------------|
B|-------5~----7-7b9~-7b9r7p5---5~----4h5-4------------------------|
G|--4h6---------------------------------------4-4h6~----------------|
D|------------------------------------------------------------------|
A|------------------------------------------------------------------|
E|------------------------------------------------------------------|

e|-------------------------------------------------7------7---------|
B|---7h9-9------7h9-9------7h9-9-------7h9-9----------9~-----9~-----|
G|--------6----------6----------6-----------6-----------------------|
D|---------6----------6----------6-----------6----------------------|
A|------------------------------------------------------------------|
E|------------------------------------------------------------------|  x2
	Second time around, instead of the second 7, 9 do this
e|------------------------------------------------------------------|
B|---9h12--9--7---7p5----9------------------------------------------|
G|--------------------6---------------------------------------------|
D|------------------------------------------------------------------|
A|------------------------------------------------------------------|
E|------------------------------------------------------------------|

Intro riff x1 but with variation at end

e---------------------|      e---------------------|---------------------|
B---------------------|      B---------------------|-----------7---------|
G---------------------|      G---------------4---6-|---------------------|
D-----------2---4---6-|      D---2---4---6---------|---2---4-------------|
A---2---4-------------|      A-0---0---0---0---0---|-0---0---0-----------|
E-0---0---0---0---0---|  x2  E---------------------|---------------------|


Chorus

End on E

Hope you like it.

Nich.
Tap to rate this tab
 
# A B C D E F G H I J K L M N O P Q R S T U V W X Y Z